Oops, an error
Loading. Please wait.

Release Me tab

version 1
version 1

Whole song

14,624 views 9 this week
3 commentsread comments
1 2 3 4 5
1 last vote to show rating
add to favorites
×
Save as Personal and add changes to this tab that will be seen only by you. Learn more ›
×
You can save this tab as Personal to edit and correct it or add notes. All changes will be seen only by you. Learn more »
launch autoscroll
font size
0
reset
how to read this tab
guitar tuner
edit
Autoscroll
slow
fast
+/-
esc
set tempo
stop

 it isn't perfect...but it sounds more accurate than the others i've seen. listen to the 
to get the rhythm right.


 CAPO ON 4!


 Intro... dunno how many times you repeat it:

 E   --------2--0--------|--------2--0--------|
 B   -----0--0--------0--|-----0--0--------0--|
 G   --------------------|--------------------|
 D   ---2----------2-----|---2----------2-----|
 A   --------------------|--------------------|
 E   -0------------------|-0------------------|

Verse 1:

 E   --------0-----------|--------0-----------|
 B   -----0----0------0--|-----0----0------0--|
 G   --------------------|--------------------|
 D   ---2---------2------|---1----------------|
 A   --------------------|-2------------2-----|
 E   -0------------------|--------------------|
                                                  X2
 E   --------0-----------|--------0-----------|
 B   -----0----0-----0---|-----0----0-----0---|
 G   --------------------|--------------------|
 D   ---2----------2-----|---2----------2-----|
 A   --------------------|--------------------|
 E   -0------------------|-0------------------|

 E   --------0-----------|--------0-----------|
 B   -----0----0------0--|-----0----0------0--|
 G   --------------------|--------------------|
 D   ---2---------2------|---1----------------|
 A   --------------------|-2------------2-----|
 E   -0------------------|--------------------|
                                                  X2
 E   --------0-----------|--------0-----------|
 B   -----0----0------0--|-----0----0------0--|
 G   --------------------|--------------------|
 D   ---2---------2------|---1----------------|
 A   -0------------------|-2------------2-----|
 E   --------------------|--------------------|

 VERSE 2:

 E   --------2--0--------|--------2--0--------|
 B   -----0--0-------0---|-----0--0--------0--|
 G   --------------------|--------------------|
 D   ---2----------2-----|---1----------------|
 A   --------------------|-2------------2-----|
 E   -0------------------|--------------------|
                                                  X2
 E   --------0-----------|--------0-----------|
 B   -----0--0--0-----0--|-----0--0---0----0--|
 G   --------------------|--------------------|
 D   ---2----------2-----|---2----------2-----|
 A   --------------------|--------------------|
 E   -0------------------|-0------------------|

 E   --------2--0--------|--------2--0--------|
 B   -----0--0--------0--|-----0--0--------0--|
 G   --------------------|--------------------|
 D   ---2---------2------|---1----------------|
 A   --------------------|-2------------2-----|
 E   -0------------------|--------------------|
                                                  X2
 E   --------0-----------|--------0-----------|
 B   -----0----0------0--|-----0----0------0--|
 G   --------------------|--------------------|
 D   ---2---------2------|---1----------------|
 A   -0------------------|-2------------2-----|
 E   --------------------|--------------------|

 and so on.....cant be bothered to tab the rest. its more or less the same.


 again, its not perfect...its probably far from perfect...but muck around with it a bit 
im sure it will sound ok.

 FRANKIE XXX

            
            
Suggest correction
Creating personal tab
Creating personal tab
You can edit any tab online and save it as your Personal.

You can edit, replace or remove any tab part or add personal notes – all changes will be seen only by you.

Personal tabs can be accessed anytime from any device, even offline.
Learn more »
Give kudos to tab author, rate the tab!
1 2 3 4 5
comments
print report bad tab
3 comments total.
0 reply
salo 10 Jan 19, 2008 02:46 AM

ah det låter reko. Det duger gott o väl

0 reply
scentlesss 85 Apr 15, 2008 10:29 AM

njaaoo känns lite sådär =/

0 reply
scentlesss 85 Apr 15, 2008 10:34 AM

oops satte capon på 2...my bad^^`...låter helt ok

guest
Wanna post a correction for this tab? Suggest correction