Oops, an error
Loading. Please wait.

If You Come Around Tonight chords

205 views 1 this week
no commentswrite comment
1 2 3 4 5
3 more votes to show rating
add to favorites
×
Save as Personal and add changes to this tab that will be seen only by you. Learn more ›
×
You can save this tab as Personal to edit and correct it or add notes. All changes will be seen only by you. Learn more »
launch autoscroll
font size
0
reset
transpose
0
reset
display chords
guitar tuner
edit
Autoscroll
slow
fast
+/-
esc
set tempo
stop
Author
Difficulty
Strumming
There is no strumming pattern for this song yet. and get +5 IQ
-------------------------------------------------------------------------------
                     IF YOU COME AROUND TONIGHT - Oh Mercy
-------------------------------------------------------------------------------
Tabbed by: ericamcn

Tuning: standard

e|---------------------------------------------------------------------------|
B|---------------------------------------------------------------------------|
G|---------------------------------------------------------------------------|
D|---------------------------------------------------------------------------|
A|-3-3-3-3-2-2-0-0-2-2-------0-2-2-3-3-2-2-0-0-----3-3-3-3-3-3-3-3-3---------|
E|---------------------3-3-3-------------------3-3---------------------------|

G
I heard your name in the supermarket
C
I told myself that it couldn't be true
G
You hit me once, hit me twice now
C
But I like the pain, I guess that you do too

         G
Yeah but if you come around tonight
C
If you come around tonight
         G
Yeah but if you come around tonight

Everything will be alright 
C
If you come around tonight

e|---------------------------------------------------------------------------|
B|---------------------------------------------------------------------------|
G|---------------------------------------------------------------------------|
D|---------------------------------------------------------------------------|
A|-3-3-3-3-2-2-0-0-2-2-------0-2-2-3-3-2-2-0-0-----3-3-3-3-3-3-3-3-3---------|
E|---------------------3-3-3-------------------3-3---------------------------|

G
I was feeling low, now a little bit lower
C
It is and was on account of you
G
I feel my heart beat softer and slower
C
There's nothing despair can't and wouldn't do

         G
Yeah but if you come around tonight
C
If you come around tonight
         G
Yeah but if you come around tonight

Everything will be alright 
C
If you come around tonight

Oh mama

e|---------------------------------------------------------------------------|
B|---------------------------------------------------------------------------|
G|-0-0-0-0-0-0-0-0-2-4-0-0---0-0---0-0-0-------------------------------------|
D|-------------------------2-----2-------2-0---------------------------------|
A|---------------------------------------------------------------------------|
E|---------------------------------------------------------------------------|

G
I'm broken down, worthless and hungry
C
Hungry for you, what am I to do?
G
I'm decomposing, my conscience slowing
C
Can't feel a thing unless I'm feeling you

         G
Yeah but if you come around tonight
C
If you come around tonight
         G
Yeah but if you come around tonight

Everything will be alright 
C
If you come around tonight

   G
Oh if you come around tonight
C
If you come around tonight
         G
Yeah but if you come around tonight

Everything will be alright 
C
If you come around tonight

e|---------------------------------------------------------------------------|
B|---------------------------------------------------------------------------|
G|-0-0-0-0-0-0-0-0-2-4-0-0---0-0---0-0-0-------------------------------------|
D|-------------------------2-----2-------2-0---------------------------------|
A|---------------------------------------------------------------------------|
E|---------------------------------------------------------------------------|

e|---------------------------------------------------------------------------|
B|---------------------------------------------------------------------------|
G|-0-0-0-0-0-0-0-0-2-4-------------------------------------------------------|
D|---------------------2-2---------------------------------------------------|
A|-------------------------3-------------------------------------------------|
E|---------------------------------------------------------------------------|

e|---------------------------------------------------------------------------|
B|---------------------------------------------------------------------------|
G|-0-0-0-0-0-0-0-0-2-4-------------------------------------------------------|
D|---------------------2-2---------------------------------------------------|
A|-------------------------3-3-----------------------------------------------|
E|-----------------------------3---------------------------------------------|

            
            
Suggest correction
Creating personal tab
Creating personal tab
You can edit any tab online and save it as your Personal.

You can edit, replace or remove any tab part or add personal notes – all changes will be seen only by you.

Personal tabs can be accessed anytime from any device, even offline.
Learn more »
Give kudos to tab author, rate the tab!
1 2 3 4 5
comments
print report bad tab
guest
You may want to rate the tab now too:
select rating
Wanna post a correction for this tab? Suggest correction