Oops, an error
Loading. Please wait.

Claws Of A God tab

version 1
version 1

Whole song

Interactive

34 views 1 this week
no commentswrite comment
1 2 3 4 5
3 more votes to show rating
add to favorites
×
Save as Personal and add changes to this tab that will be seen only by you. Learn more ›
×
You can save this tab as Personal to edit and correct it or add notes. All changes will be seen only by you. Learn more »
launch autoscroll
font size
0
reset
how to read this tab
guitar tuner
edit
Autoscroll
slow
fast
+/-
esc
set tempo
stop
[Claws Of A God]
[Children Of Fire]
[Oh, Sleeper]

Tuning: C G C F A D
Playthrough: https://www.youtube.com/watch?v=7jmc0Hvke9M

[Riff 1] - [00:00] - [00:07] - [x2]
- -----------------------------------------------------------------
- -----------------------------------------------------------------
- -----------------------------------------------------------------
- -----------------------------------------------------------------
- -5p0---------5p0---------4p0-----5p0---------5p0---------4p0-----
- -----5h8-0-------5h8-0-------3h6-----5h8-0-------5h8-0-------3h6-

[Riff 2, Guitar 1 & 2] - [00:07] - [00:13] - [x2]
- -------------------------------------------------------
- -------------------------------------------------------
- -------------------------------------------------------
- -8p0----------7p0------8h10-8p0----------7p0------8h10-
- -----8h12---------7h10----------8h12---------7h10------
- ----------0--------------------------0-----------------
-
- -------------------------------------------------------
- -------------------------------------------------------
- -7------------5--------5h8--7------------5--------5h8--
- ---8-7h10-------7-5h8---------8-7h10-------7-5h8-------
- -------------------------------------------------------
- ----------0--------------------------0-----------------

[Riff 1] - [00:13] - [00:21] - [x2]
[Riff 2] - [00:21] - [00:27] - [x2]

[Riff 3a] - [00:27] - [00:38] - [x2]
- -------------------------------------------------------------------------------------------------
- -------------------------------------------------------------------------------------------------
- -8p0-3h5-----8p0-3h5h7p0-8p0-3h5-----8p0-3h5h7p0-8p0-3h5-----8p0-3h5h7p0-8p0-3h5-----8p0-3h5h7p0-
- -------------------------------------------------------------------------------------------------
- ---------3-----------------------3-----------------------1-----------------------1---------------
- -------------------------------------------------------------------------------------------------

[Riff 3b] - [00:27] - [00:38] - [x2]
- -----------------------------------------------------------------------
- -----------------------------------------------------------------------
- -----------------------------------------------------------------------
- -----------------------------------------------------------------------
- -----------------------------------------------------------------------
- -10-10-10-10-10---10-10-10-10-10-10-10-10-10-10-10---10-10-10-10-10-10-
PM .....................................................................

- -------------------------------------------------
- -------------------------------------------------
- -------------------------------------------------
- -------------------------------------------------
- -------------------------------------------------
- -8-8-8-8-8---8-8-8-8-8-8-8-8-8-8-8---8-8-8-8-8-8-
PM ...............................................

[Riff 4a] - [00:38] - [00:46]
   T    T        T    T        T    T    T    T        T    T        T    T
- -----------------------------------------------------------------------------
- -----------------------------------------------------------------------------
- -----------------------------------------------------------------------------
- -12p0-13p0-1---12p0-13p0-1---12p0-13p0-12p0-13p0-1---12p0-13p0-1---12p0-13p0-
- -----------------------------------------------------------------------------
- -----------------------------------------------------------------------------

   T    T        T    T        T    T
- ------------------------------------------------------------------------
- ----------------------------------------4-4-4-4-4---4-4-4-4-4---6-6-6-6-
- ----------------------------------------x-x-x-x-x---x-x-x-x-x---x-x-x-x-
- -12p0-13p0-1---12p0-13p0-1---12p0-13p0--1-1-1-1-1---1-1-1-1-1---3-3-3-3-
- ------------------------------------------------------------------------
- ------------------------------------------------------------------------

[Riff 4b] - [00:38] - [00:46]
- -----------------------------------------------------------------
- -----------------------------------------------------------------
- -----------------------------------------------------------------
- -----------------------------------------------------------------
- -0-0-0-0-0---0-0-0-0-0---0-0-0-0-0-0-0-0-0---0-0-0-0-0---0-0-0-0-
- -0-0-0-0-0---0-0-0-0-0---0-0-0-0-0-0-0-0-0---0-0-0-0-0---0-0-0-0-
PM ...............................................................

- -----------------------------------------------------------------
- -----------------------------------------------------------------
- -----------------------------------------------------------------
- -0-0-0-0-0---0-0-0-0-0---0-0-0-0-1-1-1-1-1---1-1-1-1-1---3-3-3-3-
- -0-0-0-0-0---0-0-0-0-0---0-0-0-0-1-1-1-1-1---1-1-1-1-1---3-3-3-3-
PM ...............................................................


[Riff 5a, Guitar 1 & 2] - [00:46] - [01:01] - [x2]
- -----------------------------------------------------------------
- -----------------------------------------------------------------
- -----------------------------------------------------------------
- -5---5---5---5---5---5---5---5---3---3---3---3---3---3---3---3---
- -5---5---5---5---5---5---5---5---1---1---1---1---1---1---1---1---
- -5---5---5---5---5---5---5---5-----------------------------------
-
- -----------------------------------------------------------------
- -8---8---8---8---8---8---6---8---8---8---8---8---8---8---8---8---
- -x---x---x---x---x---x---x---x---x---x---x---x---x---x---x---x---
- -5---5---5---5---5---5---3---5---5---5---5---5---5---5---5---5---
- -----------------------------------------------------------------
- -----------------------------------------------------------------


- -----------------------------------------------------------------
- -----------------------------------------------------------------
- -----------------------------------------------------------------
- -5---5---5---5---5---5---5---5---3---3---3---3---3---3---3---3---
- -3---3---3---3---3---3---3---3---3---3---3---3---3---3---3---3---
- ---------------------------------3---3---3---3---3---3---3---3---
-
- -----------------------------------------------------------------
- -8---8---8---8---8---8---6---8---8---11--11--8---8---8---8---8---
- -x---x---x---x---x---x---x---x---x---x---x---x---x---x---x---x---
- -5---5---5---5---5---5---3---5---5---8---8---5---5---5---5---5---
- -----------------------------------------------------------------
- -----------------------------------------------------------------


[Riff 5b] - [00:46] - [01:01]
- -----------------------------------------------------------------
- -11--11--11--11--11--11--11--11--15--15--15--15--15--15--15--15--
- -x---x---x---x---x---x---x---x---x---x---x---x---x---x---x---x---
- -8---8---8---8---8---8---8---8---12--12--12--12--12--12--12--12--
- -----------------------------------------------------------------
- -----------------------------------------------------------------

- -----------------------------------------------------------------
- -15--15--15--15--15--15--15--15--10--10--10--10--10--10--10--10--
- -x---x---x---x---x---x---x---x---x---x---x---x---x---x---x---x---
- -12--12--12--12--12--12--12--12--7---7---7---7---7---7---7---7---
- -----------------------------------------------------------------
- -----------------------------------------------------------------

- -----------------------------------------------------------------
- -10--10--10--10--10--10--10--10--11--11--11--11--11--11--11--11--
- -x---x---x---x---x---x---x---x---x---x---x---x---x---x---x---x---
- -7---7---7---7---7---7---7---7---8---8---8---8---8---8---8---8---
- -----------------------------------------------------------------
- -----------------------------------------------------------------

- -----------------------------------------------------------------
- -13--13--13--13--13--13--13--13--15--15--15--15--15--15--15--15--
- -x---x---x---x---x---x---x---x---x---x---x---x---x---x---x---x---
- -10--10--10--10--10--10--10--10--12--12--12--12--12--12--12--12--
- -----------------------------------------------------------------
- -----------------------------------------------------------------


[Riff 6, Guitar 1 & 2] - [01:01] - [01:09]
- -----------------------------------------------------------------
- -----------------------------------------------------------------
- -----------------------------------------------------------------
- -1-----------1-----------1-------1-----------1-----------1-------
- -1-----------1-----------1-------1-----------1-----------1-------
- -1-----------1-----------1-------1-----------1-----------1-------
-
- -----------------------------------------------------------------
- -10--10--10--11--11--11--13--13--11--11--11--13--13--13--15--15--
- -x---x---x---x---x---x---x---x---x---x---x---x---x---x---x---x---
- -7---7---7---8---8---8---10--10--8---8---8---10--10--10--12--12--
- -----------------------------------------------------------------
- -----------------------------------------------------------------


- -----------------------------------------------------------------
- -----------------------------------------------------------------
- -----------------------------------------------------------------
- -1-----------1-----------1-------1-------1-------1---7---7---7---
- -1-----------1-----------1-------1-------1-------1---5---5---5---
- -1-----------1-----------1-------1-------1-------1---4---4---4---
-
- -----------------------------------------------------------------
- -13--13--13--15--15--15--16--16--18--18--18--18--18--18b-18hb18b-
- -x---x---x---x---x---x---x---x---x---x---x---x---x---x---x---x---
- -10--10--10--12--12--12--13--13--15--15--15--15--15--15--15--15--
- -----------------------------------------------------------------
- -----------------------------------------------------------------


[Riff 1] - [01:09] - [01:17] - [x2]
[Riff 2, Guitar 1 & 2] - [01:17] - [01:22] - [x2]

[Riff 7] - [01:22] - [01:30]
- -----------------------------------------------------------------
- -----------------------------------------------------------------
- -----------------------------------------------------------------
- -----------------------------------------------------------------
- -5p0---------5p0---------4p0-----5p0---------5p0---------4p0-----
- -----5h8-0-------5h8-0-------3h6-----5h8-0-------5h8-0-------3h6-

- -----------------------------------------------------------------
- -----------------------------------------------------------------
- -----------------------------------------------------------------
- -----------------------------------------------------------------
- -5p0---------5p0---------4p0-----5p0---------5p0---------4-------
- -----5h8-0-------5h8-0-------3h6-----5h8-0-------5h8-0-----------

[Riff 8a] - [01:30] - [01:45]
   T         T    T        T         T         T    T        T
- ---------------------------------------------------------------------
- ---------------------------------------------------------------------
- ----------------12p0h5h7--------------------------12p0h5h7-----------
- -13p0h7h10-12p6----------13p0h7h10-13p0h7h10-12p6----------13p0h7h10-
- ---------------------------------------------------------------------
- ---------------------------------------------------------------------

   T         T    T        T         T         T    T        T
- ---------------------------------------------------------------------
- ---------------------------------------------------------------------
- ----------------12p0h5h7--------------------------12p0h5h7-----------
- -13p0h7h10-12p6----------13p0h7h10-13p0h7h10-12p6----------13p0h7h10-
- ---------------------------------------------------------------------
- ---------------------------------------------------------------------

- ---------------------------------------------------------------------
- -------------4-------------------------------------------------------
- -7-------------------------------------------------------------------
- ---------------------------------------------------------------------
- ---------------------------------------------------------------------
- ---------------------------------------------------------------------

- ---------------------------------------------------------------------
- -------------4-------------------------------------------------------
- -7-------------------------------------------------------------------
- ---------------------------------------------------------------------
- ---------------------------------------------------------------------
- ---------------------------------------------------------------------

[Riff 9b] - [01:30] - [01:45] - [x4]
- -----------------------------------------------------------------
- -----------------------------------------------------------------
- -----------------------------------------------------------------
- -----------------------------------------------------------------
- -0-0-0-0-0---0-0-0-0-0---0-0-0-0-0-0-0-0-0---0-0-0-0-0---0-0-0-0-
- -0-0-0-0-0---0-0-0-0-0---0-0-0-0-0-0-0-0-0---0-0-0-0-0---0-0-0-0-
PM ...............................................................

[La La La] - [01:45] - [02:01]
[Riff 5a, Guitar 1 & 2] - [02:01] - [02:16] - [x2]
[Riff 5b] - [02:01] - [02:16]
[Riff 6] - [02:16] - [02:24]


[Riff 10, Guitar 1 * 2] - [02:24] - [02:39] - [x2]
- -----------------------------------------------------------------
- -----------------------------------------------------------------
- -----------------------------------------------------------------
- -----------------------------------------------------------------
- -0-0-0-0-0---0-0-0-0-0---0-0-0-0-0-0-0-0-0---0-0-0-0-0---0-0-0-0-
- -0-0-0-0-0---0-0-0-0-0---0-0-0-0-0-0-0-0-0---0-0-0-0-0---0-0-0-0-
PM ...............................................................
- -----------------------------------------------------------------
- -------------4---------------------------------------------------
- -7---------------------------------------------------------------
- -----------------------------------------------------------------
- -----------------------------------------------------------------
- -----------------------------------------------------------------

[Symbols]

PM... Palm Mute notes with (...) under them
AP... Alternate Pick notes with (...) under them
h     Hammer On
p     Pull Off
[ ]   Harmonic
/     Slide Up
\     Slide Down
x     Dead Note
b     Bend
hb    Hold Bend
pb    Pre-Bend
r     Release Bend
(x )  Play Notes x amount of times
~     Let Ring
\\\   Pick Slide Down
///   Pick Slide Up
/ 3 \ Notes are triplets (3 notes in the space of two)
w\    Whammy Bar Down
w/    Whammy Bar Up
wh    Whammy Bar Hold
T     Right Hand Tap
L     Left Hand Tap

:)

            
            
Suggest correction
Creating personal tab
Creating personal tab
You can edit any tab online and save it as your Personal.

You can edit, replace or remove any tab part or add personal notes – all changes will be seen only by you.

Personal tabs can be accessed anytime from any device, even offline.
Learn more »
Give kudos to tab author, rate the tab!
1 2 3 4 5
comments
print report bad tab
guest
You may want to rate the tab now too:
select rating
Wanna post a correction for this tab? Suggest correction