Oops, an error
Loading. Please wait.

Means To Believe Acoustic tab

version 3
version 3

Whole song

Interactive

58 views 3 this week
4 commentsread comments
1 2 3 4 5
3 more votes to show rating
add to favorites
×
Save as Personal and add changes to this tab that will be seen only by you. Learn more ›
×
You can save this tab as Personal to edit and correct it or add notes. All changes will be seen only by you. Learn more »
launch autoscroll
font size
0
reset
how to read this tab
guitar tuner
edit
Autoscroll
slow
fast
+/-
esc
set tempo
stop
https://www.youtube.com/watch?v=IhYjUapKKak

[Intro/Verse]
(2x)
e|-----0-----------0-------------0-------0-----0--------(0)------------------|
B|---------------------------------------------------------------------------|
G|-------4---4-------4---2---------4---4---------4---4-----------------------|
D|---2-----2-----2-----2-------2-----2-------2-----2-------------------------|
A|-3-----------5-------------------------------------------------------------|
E|---------------------------0-------------0---------------------------------|

e|-----0-----------0-------------0-------0-----0--------(0)------------------|
B|---------------------------------------------------------------------------|
G|-------4---4-------4---2---------4---4---------4---4-----------------------|
D|---2-----2-----2-----2-------2-----2-------2-----2-------------------------|
A|-3-----------5-------------------------------------------------------------|
E|---------------------------0-------------0---------------------------------|
You're building a ship with no sails

e|-----0-----------0-------------0-------0-----0--------(0)------------------|
B|---------------------------------------------------------------------------|
G|-------4---4-------4---2---------4---4---------4---4-----------------------|
D|---2-----2-----2-----2-------2-----2-------2-----2-------------------------|
A|-3-----------5-------------------------------------------------------------|
E|---------------------------0-------------0---------------------------------|
And Setting out to brave the open seas

e|-----0-----------0-------------0-------0-----0--------(0)------------------|
B|---------------------------------------------------------------------------|
G|-------4---4-------4---2---------4---4---------4---4-----------------------|
D|---2-----2-----2-----2-------2-----2-------2-----2-------------------------|
A|-3-----------5-------------------------------------------------------------|
E|---------------------------0-------------0---------------------------------|
You're standing for your god ----

e|-----0-----------0---------------------------------------------------------|
B|---------------------------------------------------------------------------|
G|-------4---4-------4---2---------------------------------------------------|
D|---2-----2-----2-----2-----------------------------------------------------|
A|-3-----------5-------------------------------------------------------------|
E|---------------------------0-----------------------------------------------|
Dont you see the irony?

e|-----0-----------0-------------0-------0-----0--------(0)------------------|
B|---------------------------------------------------------------------------|
G|-------4---4-------4---2---------4---4---------4---4-----------------------|
D|---2-----2-----2-----2-------2-----2-------2-----2-------------------------|
A|-3-----------5-------------------------------------------------------------|
E|---------------------------0-------------0---------------------------------|
He gave me a train with no tracks

e|-----0-----------0-------------0-------0-----0--------(0)------------------|
B|---------------------------------------------------------------------------|
G|-------4---4-------4---2---------4---4---------4---4-----------------------|
D|---2-----2-----2-----2-------2-----2-------2-----2-------------------------|
A|-3-----------5-------------------------------------------------------------|
E|---------------------------0-------------0---------------------------------|
With no wood to build or burn for Steam

e|-----0-----------0-------------0-------0-----0--------(0)------------------|
B|---------------------------------------------------------------------------|
G|-------4---4-------4---2---------4---4---------4---4-----------------------|
D|---2-----2-----2-----2-------2-----2-------2-----2-------------------------|
A|-3-----------5-------------------------------------------------------------|
E|---------------------------0-------------0---------------------------------|
Despite all i lack         if i derail he'll turn his back

e|-----0-----------0---------------------------------------------------------|
B|---------------------------------------------------------------------------|
G|-------4---4-------4---2---------------------------------------------------|
D|---2-----2-----2-----2-----------------------------------------------------|
A|-3-----------5-------------------------------------------------------------|
E|---------------------------0-----------------------------------------------|
Dont you see the irony?

[Chords]
And chords lol, I'll finish the tab w.e i have free time
e|-0-0-0-0-------------------------------------------------------------------|
B|-0-0-0-0-------------------------------------------------------------------|
G|-4-2-0-0-------------------------------------------------------------------|
D|-2-2-0-2-------------------------------------------------------------------|
A|-3-0-2-0-------------------------------------------------------------------|
E|-0-0-3-0-------------------------------------------------------------------|
Or someone could help me finish the tabs with the chords. lol idk whelp

And i wanted to post this because most of the other tabs sounds awful. and hope you enjoy this one
though ( did this by hear (and,(someone taught me the intro)

-------------
sorry to mention
(0) last note is optional, you could play it or not, still sounds good with or without it.

************************************

| (n)  Ghost note

************************************
Suggest correction
Creating personal tab
Creating personal tab
You can edit any tab online and save it as your Personal.

You can edit, replace or remove any tab part or add personal notes – all changes will be seen only by you.

Personal tabs can be accessed anytime from any device, even offline.
Learn more »
Give kudos to tab author, rate the tab!
1 2 3 4 5
comments
print report bad tab
4 comments total. Showing first comments.
+1 reply
vppark2 1,820 Jun 02, 2017 08:15 PM

Still confused as to what a ghost note is.

guest
You may want to rate the tab now too:
select rating
Wanna post a correction for this tab? Suggest correction