Oops, an error
Loading. Please wait.

Oxygen tab

version 1
version 1

Whole song

Interactive

181 views 6 this week
no commentswrite comment
1 2 3 4 5
3 more votes to show rating
add to favorites
×
Save as Personal and add changes to this tab that will be seen only by you. Learn more ›
×
You can save this tab as Personal to edit and correct it or add notes. All changes will be seen only by you. Learn more »
launch autoscroll
font size
0
reset
how to read this tab
guitar tuner
edit
Autoscroll
slow
fast
+/-
esc
set tempo
stop
[Oxygen]
[Music Video]
[Oh, Sleeper]

Tuning: C G C F A D
Playthrough: https://www.youtube.com/watch?v=O2d0f9lk7qE

[Riff 1a] - [00:06] - [00:30] - [x2]
- -------------------------------------------------------------------
- -------------------------------------------------------------------
- -7-7---------7-7-----7-7-7-7-----8-8-----10-10---------7-7-----7-7-
- -------------------------------------------------------------------
- -----5-----------5-----------5-------8-8-------5-----------5-------
- -------------------------------------------------------------------

- ---------------------------------------------------
- ---------------------------------------------------
- -7-7---------7-7-----7-7-7-7-----7-7-5-5-10-10-8-8-
- ---------------------------------------------------
- -----6-----------6-----------6---------------------
- ---------------------------------------------------

- -------------------------------------------------------------------
- -------------------------------------------------------------------
- -7-7---------7-7-----7-7-7-7-----8-8-----10-10---------7-7-----7-7-
- -------------------------------------------------------------------
- -----5-----------5-----------5-------8-8-------5-----------5-------
- -------------------------------------------------------------------

- ---------------------------------------------------------------------
- ---------------------------------------------------------------------
- -7-7---------7-7-----7-7-7-7-----7-7-5-5-10-10-8-8-7-7-5-5-10-10-8-8-
- ---------------------------------------------------------------------
- -----6-----------6-----------6---------------------------------------
- ---------------------------------------------------------------------

[Riff 1b] - [00:18] - [00:30]
- -----------------------------------------------------------------
- -----------------------------------------------------------------
- -----------------------------------------------------------------
- -----------------------------------------3-3---------------------
- -5-5---------5-5-----5-5-5-5-----6-6-----------------5-5-----5-5-
- -----0-----------0-----------0-------3-3-----0-----------0-------

- -------------------------------------------------
- -------------------------------------------------
- -------------------------------------------------
- -------------------------------------------------
- -5-5---------5-5-----5-5-5-5-----5-5-3-3-8-8-6-6-
- -----1-----------1-----------1-------------------

- -----------------------------------------------------------------
- -----------------------------------------------------------------
- -----------------------------------------------------------------
- -----------------------------------------3-3---------------------
- -5-5---------5-5-----5-5-5-5-----6-6-----------------5-5-----5-5-
- -----0-----------0-----------0-------3-3-----0-----------0-------

- -----------------------------------------------------------------
- -----------------------------------------------------------------
- -----------------------------------------------------------------
- -----------------------------------------------------------------
- -5-5---------5-5-----5-5-5-5-----5-5-3-3-8-8-6-6-5-5-3-3-8-8-6-6-
- -----1-----------1-----------1-----------------------------------


[Riff 2, Guitar 1 & 2] - [00:30] - [00:41]
- -----------------------------------------------------------------
- -----------------------------------------------------------------
- -----------------------------------------------------------------
- -----------------------------------------3-3---------------------
- -5-5---------5-5-----5-5-5-5-----6-6-----------------5-5-----5-5-
- -----0-----------0-----------0-------3-3-----0-----------0-------
-
- -----------------------------------------------------------------
- -----------------------------------------------------------------
- -7---7---7---7---7---7---7---7---7---7---7---7---7---7---7---7---
- -x---x---x---x---x---x---x---x---x---x---x---x---x---x---x---x---
- -5---5---5---5---5---5---5---5---5---5---5---5---5---5---5---5---
- -----------------------------------------------------------------


- -------------------------------------------------
- -------------------------------------------------
- -------------------------------------------------
- -------------------------------------------------
- -5-5---------5-5-----5-5-5-5-----5-5-3-3-8-8-6-6-
- -----1-----------1-----------1-------------------
-
- -------------------------------------------------
- -------------------------------------------------
- -7---7---7---7---7---7---7---7---7---7---7---7---
- -x---x---x---x---x---x---x---x---x---x---x---x---
- -5---5---5---5---5---5---5---5---5---5---5---5---
- -------------------------------------------------


- -----------------------------------------------------------------
- -----------------------------------------------------------------
- -----------------------------------------------------------------
- -----------------------------------------3-3---------------------
- -5-5---------5-5-----5-5-5-5-----6-6-----------------5-5-----5-5-
- -----0-----------0-----------0-------3-3-----0-----------0-------
-
- -----------------------------------------------------------------
- -----------------------------------------------------------------
- -8---8---8---8---8---8---8---8---8---8---8---8---8---8---8---8---
- -x---x---x---x---x---x---x---x---x---x---x---x---x---x---x---x---
- -6---6---6---6---6---6---6---6---6---6---6---6---6---6---6---6---
- -----------------------------------------------------------------


- -------------------------------------------------
- -------------------------------------------------
- -------------------------------------------------
- -------------------------------------------------
- -5-5---------5-5-----5-5-5-5-----5-5-3-3-6-6-8-8-
- -----1-----------1-----------1-------------------
PM                                 ...............
- -------------------------------------------------
- -------------------------------------------------
- -8---8---8---8---8---8---8---8---8---8---8---8---
- -x---x---x---x---x---x---x---x---x---x---x---x---
- -6---6---6---6---6---6---6---6---6---6---6---6---
- -------------------------------------------------


[Riff 3, Guitar 1 & 2] - [00:41] - [00:53]
- -----------------------------------------------------------------
- -----------------------------------------------------------------
- -----------------------------------------------------------------
- -----------------------------------------------------------------
- -0-0-0-------0-0-0---0-0-0-0-0-----------6-6-0-------0-0-0---0-0-
- -0-0-0-------0-0-0---0-0-0-0-0---0-0-1-1-----0-------0-0-0---0-0-
PM .............................               ...................
- -----------------------------------------------------------------
- -----------------------------------------------------------------
- -7---7---7---7---7---7---7---7---7---7---7---7---7---7---7---7---
- -x---x---x---x---x---x---x---x---x---x---x---x---x---x---x---x---
- -5---5---5---5---5---5---5---5---5---5---5---5---5---5---5---5---
- -----------------------------------------------------------------


- -------------------------------------------------
- -------------------------------------------------
- -------------------------------------------------
- -------------------------------------------------
- -0-0-0-------0-0-0---0-0-0-0-0---5-5-3-3-8-8-6-6-
- -0-0-0-------0-0-0---0-0-0-0-0-------------------
PM .............................
- -------------------------------------------------
- -------------------------------------------------
- -7---7---7---7---7---7---7---7---7---7---7---7---
- -x---x---x---x---x---x---x---x---x---x---x---x---
- -5---5---5---5---5---5---5---5---5---5---5---5---
- -------------------------------------------------


- -----------------------------------------------------------------
- -----------------------------------------------------------------
- -----------------------------------------------------------------
- -----------------------------------------------------------------
- -0-0-0-------0-0-0---0-0-0-0-0-----------6-6-0-------0-0-0---0-0-
- -0-0-0-------0-0-0---0-0-0-0-0---0-0-1-1-----0-------0-0-0---0-0-
PM .............................               ...................
- -----------------------------------------------------------------
- -----------------------------------------------------------------
- -8---8---8---8---8---8---8---8---8---8---8---8---8---8---8---8---
- -x---x---x---x---x---x---x---x---x---x---x---x---x---x---x---x---
- -6---6---6---6---6---6---6---6---6---6---6---6---6---6---6---6---
- -----------------------------------------------------------------


- -----------------------------------------------------------------
- -----------------------------------------------------------------
- -----------------------------------------------------------------
- -----------------------------------------------------------------
- -0-0-0-------0-0-0---0-0-0-0-0---5-5-3-3-8-8-6-6-5-5-3-3-8-8-6-6-
- -0-0-0-------0-0-0---0-0-0-0-0-----------------------------------
PM .............................
- -----------------------------------------------------------------
- -----------------------------------------------------------------
- -8---8---8---8---8---8---8---8---8---8---8---8-------------------
- -x---x---x---x---x---x---x---x---x---x---x---x-------------------
- -6---6---6---6---6---6---6---6---6---6---6---6-------------------
- -----------------------------------------------------------------


[Riff 4, Guitar 1 & 2] - [00:53] - [01:19]
- -----------------------------------------------------------------
- -----------------------------------------------------------------
- -----------------------------------------------------------------
- -5---5---5---5---5---5---5---5---5---5---5---5---5---5---5---5---
- -5---5---5---5---5---5---5---5---5---5---5---5---5---5---5---5---
- -5---5---5---5---5---5---5---5---5---5---5---5---5---5---5---5---
-
- -----------------------------------------------------------------
- -8---8---8---10--10--10--11--11--11--11--11--11--11--11--11--11--
- -x---x---x---x---x---x---x---x---x---x---x---x---x---x---x---x---
- -5---5---5---7---7---7---8---8---8---8---8---8---8---8---8---8---
- -----------------------------------------------------------------
- -----------------------------------------------------------------


- -----------------------------------------------------------------
- -----------------------------------------------------------------
- -----------------------------------------------------------------
- -8---8---8---8---8---8---8---8---8---8---8---8---8---8---8---8---
- -8---8---8---8---8---8---8---8---8---8---8---8---8---8---8---8---
- -8---8---8---8---8---8---8---8---8---8---8---8---8---8---8---8---
-
- -----------------------------------------------------------------
- -11--11--11--13--13--13--15--15--15--15--15--15--15--15--15--15--
- -x---x---x---x---x---x---x---x---x---x---x---x---x---x---x---x---
- -8---8---8---10--10--10--12--12--12--12--12--12--12--12--12--12--
- -----------------------------------------------------------------
- -----------------------------------------------------------------


- -----------------------------------------------------------------
- -----------------------------------------------------------------
- -----------------------------------------------------------------
- -10--10--10--10--10--10--10--10--10--10--10--10------------------
- -10--10--10--10--10--10--10--10--10--10--10--10------------------
- -10--10--10--10--10--10--10--10--10--10--10--10--10v-----\-------
-
- -----------------------------------------------------------------
- -13--13--13--15--15--15--16--16--16--16--16--16--16--16--16--16--
- -x---x---x---x---x---x---x---x---x---x---x---x---x---x---x---x---
- -10--10--10--12--12--12--13--13--13--13--13--13--13--13--13--13--
- -----------------------------------------------------------------
- -----------------------------------------------------------------


- -----------------------------------------------------------------
- -----------------------------------------------------------------
- -----------------------------------------------------------------
- -----------------------------------------------------------------
- -0-0-0-0-0-0-0-0-------------------------------------------------
- -0-0-0-0-0-0-0-0-12v--------------13v-------------10v----\-------
PM ...............
- -----------------------------------------------------------------
- -15-------------------------------16--------------13-------------
- -x--------------------------------x---------------x--------------
- -12-------------------------------13--------------10-------------
- -----------------------------------------------------------------
- -----------------------------------------------------------------


- -----------------------------------------------------------------
- -----------------------------------------------------------------
- -----------------------------------------------------------------
- -----------------5---5---5---5---5---5---5---5---5---5---5---5---
- -5-5-5-5-5-5-5-5-5---5---5---5---5---5---5---5---5---5---5---5---
- -5-5-5-5-5-5-5-5-5---5---5---5---5---5---5---5---5---5---5---5---
PM ...............
- -----------------------------------------------------------------
- -8---8---8---10--10--10--11--11--11--11--11--11--11--11--11--11--
- -x---x---x---x---x---x---x---x---x---x---x---x---x---x---x---x---
- -5---5---5---7---7---7---8---8---8---8---8---8---8---8---8---8---
- -----------------------------------------------------------------
- -----------------------------------------------------------------


- -----------------------------------------------------------------
- -----------------------------------------------------------------
- -----------------------------------------------------------------
- -8---8---8---8---8---8---8---8---8---8---8---8---8---8---8---8---
- -8---8---8---8---8---8---8---8---8---8---8---8---8---8---8---8---
- -8---8---8---8---8---8---8---8---8---8---8---8---8---8---8---8---
-
- -----------------------------------------------------------------
- -11--11--11--13--13--13--15--15--15--15--15--15--15--15--15--15--
- -x---x---x---x---x---x---x---x---x---x---x---x---x---x---x---x---
- -8---8---8---10--10--10--12--12--12--12--12--12--12--12--12--12--
- -----------------------------------------------------------------
- -----------------------------------------------------------------


- -----------------------------------------------------------------
- -----------------------------------------------------------------
- -----------------------------------------------------------------
- -10--10--10--10--10--10--10--10--10--10--10--10------------------
- -10--10--10--10--10--10--10--10--10--10--10--10------------------
- -10--10--10--10--10--10--10--10--10--10--10--10--10v-----\-------
-
- -----------------------------------------------------------------
- -13--13--13--15--15--15--16--16--16--16--16--16--16--16--16--16--
- -x---x---x---x---x---x---x---x---x---x---x---x---x---x---x---x---
- -10--10--10--12--12--12--13--13--13--13--13--13--13--13--13--13--
- -----------------------------------------------------------------
- -----------------------------------------------------------------


- -----------------------------------------------------------------
- -----------------------------------------------------------------
- -----------------------------------------------------------------
- -----------------------------------------------------------------
- -0-0-0-0-0-0-0-0-------------------------------------------------
- -0-0-0-0-0-0-0-0-12v--------------13v-------------10v----\-------
PM ...............
- -----------------------------------------------------------------
- -15-------------------------------16--------------13-------------
- -x--------------------------------x---------------x--------------
- -12-------------------------------13--------------10-------------
- -----------------------------------------------------------------
- -----------------------------------------------------------------


[Riff 5] - [01:19] - [01:24]
- -------------------------------------------------------------------
- -------------------------------------------------------------------
- -7-7---------7-7-----7-7-7-7-----8-8-----10-10---------7-7-----7-7-
- -------------------------------------------------------------------
- -----5-----------5-----------5-------8-8-------5-----------5-------
- -------------------------------------------------------------------

- ---------------------------------------------------
- ---------------------------------------------------
- -7-7---------7-7-----7-7-7-7-----7-7-5-5-10-10-8-8-
- ---------------------------------------------------
- -----6-----------6-----------6---------------------
- ---------------------------------------------------

[Riff 3, Guitar 1 & 2] - [01:24] - [01:36]

[Riff 6a] - [01:36] - [01:48]
- ---------------------------------------------------------
- ---------------------------------------------------------
- ---------------------------------------------------------
- ---------------------------------------------------------
- -0-0---------0-0---0-0---------------0-0-----0-----------
- -0-0---------0-0---0-0---------------0-0-----0---1-1-1-1-
PM .............................................

- -----------------------------------------------------------------
- -----------------------------------------------------------------
- -----------------------------------------------------------------
- -----------------------------------------------------------------
- -0-0---------0-0---0-0---------------0-0-----0-0-0-0---0-0-0---0-
- -0-0---------0-0---0-0---------------0-0-----0-0-0-0---0-0-0---0-
PM ...............................................................

- ---------------------------------------------------------
- ---------------------------------------------------------
- ---------------------------------------------------------
- ---------------------------------------------------------
- -0-0---------0-0---0-0---------------0-0-----0-----------
- -0-0---------0-0---0-0---------------0-0-----0---1-1-1-1-
PM .............................................

- -----------------------------------------------------------------
- -----------------------------------------------------------------
- -----------------------------------------------------------------
- -----------------------------------------------------------------
- -0-0---------0-0---0-0---------------0-0-----0-0-0---------------
- -0-0---------0-0---0-0---------------0-0-----0-0-0---------------
PM .................................................

[Riff 6b] - [01:36] - [01:48] - [x2]
- -------------------------------------------------------------------------------------
- -------------15-15-------------------13-13-------------15-15-------------------13-13-
- -14-14-------------------15-15-15-15-------14-14-------------------15-15-15-15-------
- -------12-12-------12-12-------------------------12-12-------12-12-------------------
- -------------------------------------------------------------------------------------
- -------------------------------------------------------------------------------------

- -------------------------------------------------------------------------------------------
- -------------15-15-------------------13-13-------------15-15-------------------16-16-15-15-
- -14-14-------------------15-15-15-15-------14-14-------------------15-15-14-14-------------
- -------12-12-------12-12-------------------------12-12-------12-12-------------------------
- -------------------------------------------------------------------------------------------
- -------------------------------------------------------------------------------------------

[Riff 6c] - [01:48] - [02:00] - [x2]
- ------------------------------------------------[9]-------
- --------------------------------------------------[9]-----
- ----------------------------------------------------[9]---
- ------------------------------------------------------[9]-
- ---------------------------------------------0------------
- -0-0---------0-0---0-0---------------0-0-----0------------
PM .           .     .                 .       .

- -----------------------------------------------------------------
- -----------------------------------------------------------------
- -----------------------------------------------------------------
- -----------------------------------------------------------------
- ---------------------------------------------0---0-0-0-0-0-0-0-0-
- -0-0---------0-0---0-0---------------0-0-----0---0-0-0-0-0-0-0-0-
PM .           .     .                 .       ...................

[Riff 6b] - [01:48] - [01:54] - [x2]

[Riff 6d] - [02:00] - [02:06]
- ---------------------------------------------------------
- ---------------------------------------------------------
- ---------------------------------------------------------
- ---------------------------------------------------------
- -0-0---------0-0---0-0---------------0-0-----0-----------
- -0-0---------0-0---0-0---------------0-0-----0---1-1-1-1-
PM .............................................

- -----------------------------------------------------------------
- -----------------------------------------------------------------
- -----------------------------------------------------------------
- -----------------------------------------------------------------
- -0-0---------0-0---0-0---------------0-0-----0-------------------
- -0-0---------0-0---0-0---------------0-0-----0---1-1-1-1-3-3-3-3-
PM .............................................

[Riff 4, Guitar 1 & 2] - [02:06] - [02:36]
[Riff 1a] - [02:36] - [02:44]

[Riff 7] - [02:38] - [02:44]
- -----------------------------------------------------------------
- -----------------------------------------------------------------
- -----------------------------------------------------------------
- -----------------------------------------3-3---------------------
- -5-5---------5-5-----5-5-5-5-----6-6-----------------5-5-----5-5-
- -----0-----------0-----------0-------3-3-----0-----------0-------

- -----------------------------------------------------------------
- -----------------------------------------------------------------
- -----------------------------------------------------------------
- -----------------------------------------------------------------
- -5-5---------5-5-----5-5-5-5-----5-5-3-3-8-8-6-6-----------------
- -----1-----------1-----------1-----------------------------------

[Riff 2, Guitar 1 & 2] - [02:55]

[Riff 8, Guitar 1 & 2] - [02:55] - [03:08]
- -----------------------------------------------------------------
- -----------------------------------------------------------------
- -----------------------------------------------------------------
- -----------------------------------------------------------------
- -0-0-0-------0-0-0---0-0-0-0-0-----------6-6-0-------0-0-0---0-0-
- -0-0-0-------0-0-0---0-0-0-0-0---0-0-1-1-----0-------0-0-0---0-0-
PM .............................               ...................
- -----------------------------------------------------------------
- -----------------------------------------------------------------
- -7---7---7---7---7---7---7---7---7---7---7---7---7---7---7---7---
- -x---x---x---x---x---x---x---x---x---x---x---x---x---x---x---x---
- -5---5---5---5---5---5---5---5---5---5---5---5---5---5---5---5---
- -----------------------------------------------------------------


- -------------------------------------------------
- -------------------------------------------------
- -------------------------------------------------
- -------------------------------------------------
- -0-0-0-------0-0-0---0-0-0-0-0---5-5-3-3-8-8-6-6-
- -0-0-0-------0-0-0---0-0-0-0-0-------------------
PM .............................
- -------------------------------------------------
- -------------------------------------------------
- -7---7---7---7---7---7---7---7---7---7---7---7---
- -x---x---x---x---x---x---x---x---x---x---x---x---
- -5---5---5---5---5---5---5---5---5---5---5---5---
- -------------------------------------------------


- -----------------------------------------------------------------
- -----------------------------------------------------------------
- -----------------------------------------------------------------
- -----------------------------------------------------------------
- -0-0-0-------0-0-0---0-0-0-0-0-----------6-6-0-------0-0-0---0-0-
- -0-0-0-------0-0-0---0-0-0-0-0---0-0-1-1-----0-------0-0-0---0-0-
PM .............................               ...................
- -----------------------------------------------------------------
- -----------------------------------------------------------------
- -8---8---8---8---8---8---8---8---8---8---8---8---8---8---8---8---
- -x---x---x---x---x---x---x---x---x---x---x---x---x---x---x---x---
- -6---6---6---6---6---6---6---6---6---6---6---6---6---6---6---6---
- -----------------------------------------------------------------


- ---------------------------------------------------------------------------------
- ---------------------------------------------------------------------------------
- ---------------------------------------------------------------------------------
- ---------------------------------------------------------------------------------
- -0-0-0-------0-0-0---0-0-0-0-0---5-5-3-3-6-6-8-8-5-5-3-3-5-5-6-6-----------------
- -0-0-0-------0-0-0---0-0-0-0-0-----------------------------------0---------------
PM ...............................................................
- ---------------------------------------------------------------------------------
- ---------------------------------------------------------------------------------
- -8---8---8---8---8---8---8---8---8---8---8---8---8---8---8---8-------------------
- -x---x---x---x---x---x---x---x---x---x---x---x---x---x---x---x-------------------
- -6---6---6---6---6---6---6---6---6---6---6---6---6---6---6---6-------------------
- ---------------------------------------------------------------------------------

[Symbols]

PM... Palm Mute notes with (...) under them
AP... Alternate Pick notes with (...) under them
h     Hammer On
p     Pull Off
[ ]   Harmonic
/     Slide Up
\     Slide Down
x     Dead Note
b     Bend
hb    Hold Bend
pb    Pre-Bend
r     Release Bend
(x )  Play Notes x amount of times
~     Let Ring
\\\   Pick Slide Down
///   Pick Slide Up
/ 3 \ Notes are triplets (3 notes in the space of two)
w\    Whammy Bar Down
w/    Whammy Bar Up
wh    Whammy Bar Hold
T     Right Hand Tap
L     Left Hand Tap

:)

            
            
Suggest correction
Creating personal tab
Creating personal tab
You can edit any tab online and save it as your Personal.

You can edit, replace or remove any tab part or add personal notes – all changes will be seen only by you.

Personal tabs can be accessed anytime from any device, even offline.
Learn more »
Give kudos to tab author, rate the tab!
1 2 3 4 5
comments
print report bad tab
guest
You may want to rate the tab now too:
select rating
Wanna post a correction for this tab? Suggest correction