Oops, an error
Loading. Please wait.

Shed Your Soul tab

version 1
version 1

Whole song

Interactive

31 views 3 this week
no commentswrite comment
1 2 3 4 5
3 more votes to show rating
add to favorites
×
Save as Personal and add changes to this tab that will be seen only by you. Learn more ›
×
You can save this tab as Personal to edit and correct it or add notes. All changes will be seen only by you. Learn more »
launch autoscroll
font size
0
reset
how to read this tab
guitar tuner
edit
Autoscroll
slow
fast
+/-
esc
set tempo
stop
Author
Difficulty
[Shed Your Soul]
[Children Of Fire]
[Oh, Sleeper]

Tuning: A E A D A D
Playthrough: https://www.youtube.com/watch?v=kP6bXe0glKM&t=19s

[Riff 1a] - [00:01] - [00:21]
- ----------------------------------------------------------------------------------
- -13-0-13-0-12-13-0-13-12-13-0-12-13-0-13-0-13-0-13-0-0-13-0-13-0-13-0-0-13-0-13-0-
- ----------------------------------------------------------------------------------
- ----------------------------------------------------------------------------------
- ----------------------------------------------------------------------------------
- ----------------------------------------------------------------------------------

- -------------------------------------------------------------------------------------------------
- -------------------------------------------------------------------------------------------------
- -------------------------------------------------------------------------------------------------
- -------------------------------------------------------------------------------------------------
- -10-10-10-10----10-10-10-10-10-10----10-10-10-10-10-10-10-10----10-10-10-10-10-10----10-10-10-10-
- -8--8--8--8-----8--8--8--8--8--8-----8--8--8--8--8--8--8--8-----8--8--8--8--8--8-----8--8--8--8--
PM ...............................................................................................

- ----------------------------------------------------------------------------------
- -13-0-13-0-12-13-0-13-12-13-0-12-13-0-13-0-13-0-13-0-0-13-0-13-0-13-0-0-13-0-13-0-
- ----------------------------------------------------------------------------------
- ----------------------------------------------------------------------------------
- ----------------------------------------------------------------------------------
- ----------------------------------------------------------------------------------

- -------------------------------------------------------------------------------------------------
- -------------------------------------------------------------------------------------------------
- -------------------------------------------------------------------------------------------------
- -------------------------------------------------------------------------------------------------
- -10-10-10-10----10-10-10-10-10-10----10-10-10-10-10-10-10-10----10-10-10-10-10-10----10-10-10-10-
- -8--8--8--8-----8--8--8--8--8--8-----8--8--8--8--8--8--8--8-----8--8--8--8--8--8-----8--8--8--8--
PM ...............................................................................................

- -------------------------------------------------------------------------------------------------
- -------------------------------------------------------------------------------------------------
- -------------------------------------------------------------------------------------------------
- -------------------------------------------------------------------------------------------------
- -10-10-10-10----10-10-10-10-10-10----10-10-10-10-10-10-10-10----10-10-10-10-10-10----10-10-10-10-
- -8--8--8--8-----8--8--8--8--8--8-----8--8--8--8--8--8--8--8-----8--8--8--8--8--8-----8--8--8--8--
PM ...............................................................................................

[Riff 1b] - [01:00] - [00:21]
- -------------------------------------------------------------------------------------------------
- -------------------------------------------------------------------------------------------------
- -14-14-14-14-14-14-14-14-14-14-14-14-14-14-14-14-14-14-14-14-14-14-14-14-14-14-14-14-14-14-14-14-
- -x--x--x--x--x--x--x--x--x--x--x--x--x--x--x--x--x--x--x--x--x--x--x--x--x--x--x--x--x--x--x--x--
- -12-12-12-12-12-12-12-12-12-12-12-12-12-12-12-12-12-12-12-12-12-12-12-12-12-12-12-12-12-12-12-12-
- -------------------------------------------------------------------------------------------------

- -------------------------------------------------------------------------------------------------
- -------------------------------------------------------------------------------------------------
- -13-13-13-13-13-13-13-13-13-13-13-13-13-13-13-13-13-13-13-13-13-13-13-13-13-13-13-13-13-13-13-13-
- -x--x--x--x--x--x--x--x--x--x--x--x--x--x--x--x--x--x--x--x--x--x--x--x--x--x--x--x--x--x--x--x--
- -11-11-11-11-11-11-11-11-11-11-11-11-11-11-11-11-11-11-11-11-11-11-11-11-11-11-11-11-11-11-11-11-
- -------------------------------------------------------------------------------------------------

- -------------------------------------------------------------------------------------------------
- -------------------------------------------------------------------------------------------------
- -14-14-14-14-14-14-14-14-14-14-14-14-14-14-14-14-14-14-14-14-14-14-14-14-14-14-14-14-14-14-14-14-
- -x--x--x--x--x--x--x--x--x--x--x--x--x--x--x--x--x--x--x--x--x--x--x--x--x--x--x--x--x--x--x--x--
- -12-12-12-12-12-12-12-12-12-12-12-12-12-12-12-12-12-12-12-12-12-12-12-12-12-12-12-12-12-12-12-12-
- -------------------------------------------------------------------------------------------------

- -------------------------------------------------------------------------------------------------
- -------------------------------------------------------------------------------------------------
- -13-13-13-13-13-13-13-13-13-13-13-13-13-13-13-13-13-13-13-13-13-13-13-13-13-13-13-13-13-13-13-13-
- -x--x--x--x--x--x--x--x--x--x--x--x--x--x--x--x--x--x--x--x--x--x--x--x--x--x--x--x--x--x--x--x--
- -11-11-11-11-11-11-11-11-11-11-11-11-11-11-11-11-11-11-11-11-11-11-11-11-11-11-11-11-11-11-11-11-
- -------------------------------------------------------------------------------------------------

- -------------------------------------------------------------------------------------------------
- -------------------------------------------------------------------------------------------------
- -12-12-12-12-12-12-12-12-12-12-12-12-12-12-12-12-12-12-12-12-12-12-12-12-12-12-12-12-12-12-12-12-
- -x--x--x--x--x--x--x--x--x--x--x--x--x--x--x--x--x--x--x--x--x--x--x--x--x--x--x--x--x--x--x--x--
- -10-10-10-10-10-10-10-10-10-10-10-10-10-10-10-10-10-10-10-10-10-10-10-10-10-10-10-10-10-10-10-10-
- -------------------------------------------------------------------------------------------------


[Riff 2a, Guitar 1 & 2] - [00:21] - [00:29]
- -----------------------------------------------------------------
- -----------------------------------------------------------------
- -----------------------------------------------------------------
- -----------------------------------------------------------------
- -----------------------------------------------------------------
- -0pbr------------------------------------------------------------
-
- -----------------------------------------------------------------
- ---------------------------------8-------------------------------
- -----------------------8-----------------------------------------
- -12--------------12----------12--------------------------12------
- -----------------------------------------------------------------
- -----------------------------------------------------------------


- -----------------------------------------------------------------
- -----------------------------------------------------------------
- -----------------------------------------------------------------
- -----------------------------------------------------------------
- -----------------------------------------------------------------
- -0pbr------------------------------------------------------------
-
- -----------------------------------------------------------------
- -------------------------8---------------------------------------
- ---------------------8-------------------------------------------
- -12--------------12--------------------------12------------------
- -----------------------------------------------------------------
- -----------------------------------------------------------------


[Riff 2b] - [00:21] - [00:29] - [x2]
- -----------------------8---------------8-------------------------
- -12--------------12----------12--12----------12------------------
- -----------------------------------------------------------------
- -----------------------------------------------------------------
- -----------------------------------------------------------------
- -----------------------------------------------------------------

[Riff 3a] - [00:29] - [00:53]
- -------------------------------------------------------------------------------------------------
- -------------------------------------------------------------------------------------------------
- -14-14-14-14-14-14-14-14-14-14-14-14-14-14-14-14-14-14-14-14-14-14-14-14-14-14-14-14-14-14-14-14-
- -x--x--x--x--x--x--x--x--x--x--x--x--x--x--x--x--x--x--x--x--x--x--x--x--x--x--x--x--x--x--x--x--
- -12-12-12-12-12-12-12-12-12-12-12-12-12-12-12-12-12-12-12-12-12-12-12-12-12-12-12-12-12-12-12-12-
- -------------------------------------------------------------------------------------------------

- -------------------------------------------------------------------------------------------------
- -------------------------------------------------------------------------------------------------
- -13-13-13-13-13-13-13-13-13-13-13-13-13-13-13-13-13-13-13-13-13-13-13-13-13-13-13-13-13-13-13-13-
- -x--x--x--x--x--x--x--x--x--x--x--x--x--x--x--x--x--x--x--x--x--x--x--x--x--x--x--x--x--x--x--x--
- -11-11-11-11-11-11-11-11-11-11-11-11-11-11-11-11-11-11-11-11-11-11-11-11-11-11-11-11-11-11-11-11-
- -------------------------------------------------------------------------------------------------

- -------------------------------------------------------------------------------------------------
- -------------------------------------------------------------------------------------------------
- -14-14-14-14-14-14-14-14-14-14-14-14-14-14-14-14-14-14-14-14-14-14-14-14-14-14-14-14-14-14-14-14-
- -x--x--x--x--x--x--x--x--x--x--x--x--x--x--x--x--x--x--x--x--x--x--x--x--x--x--x--x--x--x--x--x--
- -12-12-12-12-12-12-12-12-12-12-12-12-12-12-12-12-12-12-12-12-12-12-12-12-12-12-12-12-12-12-12-12-
- -------------------------------------------------------------------------------------------------

- -------------------------------------------------------------------------------------------------
- -------------------------------------------------------------------------------------------------
- -13-13-13-13-13-13-13-13-13-13-13-13-13-13-13-13-13-13-13-13-13-13-13-13-13-13-13-13-13-13-13-13-
- -x--x--x--x--x--x--x--x--x--x--x--x--x--x--x--x--x--x--x--x--x--x--x--x--x--x--x--x--x--x--x--x--
- -11-11-11-11-11-11-11-11-11-11-11-11-11-11-11-11-11-11-11-11-11-11-11-11-11-11-11-11-11-11-11-11-
- -------------------------------------------------------------------------------------------------

- -------------------------------------------------------------------------------------------------
- -------------------------------------------------------------------------------------------------
- -12-12-12-12-12-12-12-12-12-12-12-12-12-12-12-12-12-12-12-12-12-12-12-12-12-12-12-12-12-12-12-12-
- -x--x--x--x--x--x--x--x--x--x--x--x--x--x--x--x--x--x--x--x--x--x--x--x--x--x--x--x--x--x--x--x--
- -10-10-10-10-10-10-10-10-10-10-10-10-10-10-10-10-10-10-10-10-10-10-10-10-10-10-10-10-10-10-10-10-
- -------------------------------------------------------------------------------------------------

- -------------------------------------------------------------------------------------------------
- -------------------------------------------------------------------------------------------------
- -12-12-12-12-12-12-12-12-12-12-12-12-12-12-12-12-12-12-12-12-12-12-12-12-12-12-12----------------
- -x--x--x--x--x--x--x--x--x--x--x--x--x--x--x--x--x--x--x--x--x--x--x--x--x--x--x-----------------
- -10-10-10-10-10-10-10-10-10-10-10-10-10-10-10-10-10-10-10-10-10-10-10-10-10-10-10----------------
- -------------------------------------------------------------------------------------------------

[Riff 3b] - [00:29] - [00:53]
- ----------------------------------------------------------------------------------
- -13-0-13-0-12-13-0-13-12-13-0-12-13-0-13-0-13-0-13-0-0-13-0-13-0-13-0-0-13-0-13-0-
- ----------------------------------------------------------------------------------
- ----------------------------------------------------------------------------------
- ----------------------------------------------------------------------------------
- ----------------------------------------------------------------------------------

- -------------------------------------------------------------------------------------------------
- -------------------------------------------------------------------------------------------------
- -------------------------------------------------------------------------------------------------
- -------------------------------------------------------------------------------------------------
- -10-10-10-10----10-10-10-10-10-10----10-10-10-10-10-10-10-10----10-10-10-10-10-10----10-10-10-10-
- -8--8--8--8-----8--8--8--8--8--8-----8--8--8--8--8--8--8--8-----8--8--8--8--8--8-----8--8--8--8--
PM ...............................................................................................

- ----------------------------------------------------------------------------------
- -13-0-13-0-12-13-0-13-12-13-0-12-13-0-13-0-13-0-13-0-0-13-0-13-0-13-0-0-13-0-13-0-
- ----------------------------------------------------------------------------------
- ----------------------------------------------------------------------------------
- ----------------------------------------------------------------------------------
- ----------------------------------------------------------------------------------

- -------------------------------------------------------------------------------------------------
- -------------------------------------------------------------------------------------------------
- -------------------------------------------------------------------------------------------------
- -------------------------------------------------------------------------------------------------
- -10-10-10-10----10-10-10-10-10-10----10-10-10-10-10-10-10-10----10-10-10-10-10-10----10-10-10-10-
- -8--8--8--8-----8--8--8--8--8--8-----8--8--8--8--8--8--8--8-----8--8--8--8--8--8-----8--8--8--8--
PM ...............................................................................................

- -------------------------------------------------------------------------------------------------
- -------------------------------------------------------------------------------------------------
- -------------------------------------------------------------------------------------------------
- -------------------------------------------------------------------------------------------------
- -10-10-10-10----10-10-10-10-10-10----10-10-10-10-10-10-10-10----10-10-10-10-10-10----10-10-10-10-
- -8--8--8--8-----8--8--8--8--8--8-----8--8--8--8--8--8--8--8-----8--8--8--8--8--8-----8--8--8--8--
PM ...............................................................................................

- -----------------------------------------------------------------
- -----------------------------------------------------------------
- -----------------------------------------------------------------
- -5---------5---------5---------5---------5---------5-------------
- -----------------------------------------------------------------
- ---5---5-----5---5-----5---5-----5---5-----5---5-----5-----------

[Riff 4a] - [00:53] - [01:07] - [x2]
- ---------------------------------------------------------
- ---------------------------------------------------------
- ---------------------------------------------------------
- -3---------3---------3---3---------3---------3---3-3-3-3-
- ---------------------------------------------------------
- ---3---3-----3---3-----3---3---3-----3---3-----3---------

- ---------------------------------------------------------
- ---------------------------------------------------------
- ---------------------------------------------------------
- -2---------2---------2---2---------2---------2---2-2-2-2-
- ---------------------------------------------------------
- ---2---2-----2---2-----2---2---2-----2---2-----2---------

[Riff 4b] - [00:53] - [01:07] - [x2]
- -------------------------------------------------------------------------------------
- -------------------------------------------------------------------------------------
- -10-10-10-10-10-10-10-10-10-10-10-10-10-10-10-10-10-10-10-10-10-10-10-10-10-10-10-10-
- -x--x--x--x--x--x--x--x--x--x--x--x--x--x--x--x--x--x--x--x--x--x--x--x--x--x--x--x--
- -8--8--8--8--8--8--8--8--8--8--8--8--8--8--8--8--8--8--8--8--8--8--8--8--8--8--8--8--
- -------------------------------------------------------------------------------------

- ---------------------------------------------------------
- ---------------------------------------------------------
- -9-9-9-9-9-9-9-9-9-9-9-9-9-9-9-9-9-9-9-9-9-9-9-9-9-9-9-9-
- -x-x-x-x-x-x-x-x-x-x-x-x-x-x-x-x-x-x-x-x-x-x-x-x-x-x-x-x-
- -7-7-7-7-7-7-7-7-7-7-7-7-7-7-7-7-7-7-7-7-7-7-7-7-7-7-7-7-
- ---------------------------------------------------------


[Riff 5, Guitar 1 & 2] - [01:07] - [01:09]
- ---------------------------------
- ---------------------------------
- ---------------------------------
- -2---------2---------------------
- ---------------------------------
- ---2---2-----2-------------------
-
- ---------------------------------
- ---------------------------------
- ---------------------------------
- -----------------1---------1-----
- ---------------------------------
- -------------------1---1-----1---


[Riff 6a, Guitar 1 & 2] - [01:09] - [01:23] - [x2]
- ---------------------------------------------------------
- ---------------------------------------------------------
- ---------------------------------------------------------
- -1---------1---------1---1---------1---------1---2-2-2-2-
- ---------------------------------------------------------
- ---0---0-----0---0-----0---0---0-----0---0-----0---------
-
- ---------------------------------------------------------
- ---------------------------------------------------------
- ---------------------------------------------------------
- ---------------------------------------------------------
- -5---------5---------5---5---------5---------5---6-6-6-6-
- ---0---0-----0---0-----0---0---0-----0---0-----0---------


- ---------------------------------------------------------
- ---------------------------------------------------------
- ---------------------------------------------------------
- -2---------2---------2---2---------2---------2---2-2-2-2-
- ---------------------------------------------------------
- ---1---1-----1---1-----1---1---1-----1---1-----1---------
-
- ---------------------------------------------------------
- ---------------------------------------------------------
- ---------------------------------------------------------
- ---------------------------------------------------------
- -6---------6---------6---6---------6---------6---6-6-6-6-
- ---0---0-----0---0-----0---0---0-----0---0-----0---------


[Riff 6b] - [01:09] - [01:23] - [x2]
- ---------------------------------------------------------
- ---------------------------------------------------------
- -7-7-7-7-7-7-7-7-7-7-7-7-7-7-7-7-7-7-7-7-7-7-7-7-7-7-7-7-
- -x-x-x-x-x-x-x-x-x-x-x-x-x-x-x-x-x-x-x-x-x-x-x-x-x-x-x-x-
- -5-5-5-5-5-5-5-5-5-5-5-5-5-5-5-5-5-5-5-5-5-5-5-5-5-5-5-5-
- ---------------------------------------------------------

- ---------------------------------------------------------
- ---------------------------------------------------------
- -8-8-8-8-8-8-8-8-8-8-8-8-8-8-8-8-8-8-8-8-8-8-8-8-8-8-8-8-
- -x-x-x-x-x-x-x-x-x-x-x-x-x-x-x-x-x-x-x-x-x-x-x-x-x-x-x-x-
- -6-6-6-6-6-6-6-6-6-6-6-6-6-6-6-6-6-6-6-6-6-6-6-6-6-6-6-6-
- ---------------------------------------------------------


[Riff 7, Guitar 1 & 2] - [01:23] - [01:31] - [x2]
- -----------------------------------------------------------------
- -----------------------------------------------------------------
- -----------------------------------------------------------------
- -----------------------------------------------------------------
- -----------------------------------------------------------------
- -0pbr------------------------------------------------------------
-
- -----------------------8---------------8-------------------------
- -12--------------12----------12--12----------12------------------
- -----------------------------------------------------------------
- -----------------------------------------------------------------
- -----------------------------------------------------------------
- -----------------------------------------------------------------


[Ra Ra Ra] - [01:31] - [01:39]

[Riff 8] - [01:39] - [01:55] - [x4]
- -----------------------------------------------------------------
- -----------------------------------------------------------------
- -----------------------------------------------------------------
- -----------------------------------------------------------------
- -----------------------------------------------------------------
- -0pbr------------------------------------------------------------


[Riff 9, Guitar 1 & 2] - [01:55] - [02:07] - [x2]
- -------------------------------------------------------------------------------------------------
- -------------------------------------------------------------------------------------------------
- -------------------------------------------------------------------------------------------------
- -------------------------------------------------------------------------------------------------
- -6-6---6---6-6---6---6-6-6-6---6---6-6---6---6-6-6-6---6---6-6---6---6-6-6-6---6---6-6---6---6-6-
- ---0---0-----0---0-----0---0---0-----0---0-----0---0---0-----0---0-----0---0---0-----0---0-----0-
PM   .....     .....     .   .....     .....     .   .....     .....     .   .....     .....     . 
- -------------------------------------------------------------------------------------------------
- -------------------------------------------------------------------------------------------------
- -7-7-7-7-7-7-7-7-7-7-7-7-7-7-7-7-7-7-7-7-7-7-7-7-8-8-8-8-8-8-8-8-8-8-8-8-8-8-8-8-8-8-8-8-8-8-8-8-
- -x-x-x-x-x-x-x-x-x-x-x-x-x-x-x-x-x-x-x-x-x-x-x-x-x-x-x-x-x-x-x-x-x-x-x-x-x-x-x-x-x-x-x-x-x-x-x-x-
- -5-5-5-5-5-5-5-5-5-5-5-5-5-5-5-5-5-5-5-5-5-5-5-5-6-6-6-6-6-6-6-6-6-6-6-6-6-6-6-6-6-6-6-6-6-6-6-6-
- -------------------------------------------------------------------------------------------------

[Riff 6a] - [02:07] - [02:21]
[Riff 6b] - [02:07[ - [02:21]

[Riff 10, Guitar 1 & 2] - [02:21] - [02:35]
- -----------------------------------------------------------------
- -----------------------------------------------------------------
- -----------------------------------------------------------------
- -----------------------------------------------------------------
- -----------------------------------------------------------------
- -0pbr------------------------------------------------------------
-
- -----------------------------------------------------------------
- -----------------------------------------------------------------
- -7---------------------------------------------------------------
- -x---------------------------------------------------------------
- -5---------------------------------------------------------------
- -----------------------------------------------------------------

[Symbols]

PM... Palm Mute notes with (...) under them
AP... Alternate Pick notes with (...) under them
h     Hammer On
p     Pull Off
[ ]   Harmonic
/     Slide Up
\     Slide Down
x     Dead Note
b     Bend
hb    Hold Bend
pb    Pre-Bend
r     Release Bend
(x )  Play Notes x amount of times
~     Let Ring
\\\   Pick Slide Down
///   Pick Slide Up
/ 3 \ Notes are triplets (3 notes in the space of two)
w\    Whammy Bar Down
w/    Whammy Bar Up
wh    Whammy Bar Hold
T     Right Hand Tap
L     Left Hand Tap

:)

            
            
Suggest correction
Creating personal tab
Creating personal tab
You can edit any tab online and save it as your Personal.

You can edit, replace or remove any tab part or add personal notes – all changes will be seen only by you.

Personal tabs can be accessed anytime from any device, even offline.
Learn more »
Give kudos to tab author, rate the tab!
1 2 3 4 5
comments
print report bad tab
guest
You may want to rate the tab now too:
select rating
Wanna post a correction for this tab? Suggest correction