Oops, an error
Loading. Please wait.

The End Of A Dark Campaign tab

version 1
version 1

Whole song

Interactive

34 views 1 this week
no commentswrite comment
1 2 3 4 5
3 more votes to show rating
add to favorites
×
Save as Personal and add changes to this tab that will be seen only by you. Learn more ›
×
You can save this tab as Personal to edit and correct it or add notes. All changes will be seen only by you. Learn more »
launch autoscroll
font size
0
reset
how to read this tab
guitar tuner
edit
Autoscroll
slow
fast
+/-
esc
set tempo
stop
[The End Of A Dark Campaign]
[When I Am God]
[Oh, Sleeper]

Tuning: C G C F A D
Playthrough: https://www.youtube.com/watch?v=mfBQu4wGHzs


[Riff 1, Guitar 1 & 2] - [01:00] - [00:13]
- ------------------------------------------------------------------------
- ------------------------------------------------------------------------
- -14------------------------------8---------------7----------------------
- -0-------------------------------0---------------0----------------------
- -12------------------------------6---------------5--------0-0-0-0-0-0-0-
- -0-------------------------------0---------------0--------0-0-0-0-0-0-0-
PM                                                          .............
- ------------------------------------------------------------------------
- ------------------------------------------------------------------------
- -8-------------------------------8---------------8----------------------
- -12------------------------------12--------------12---------------------
- ----------------------------------------------------------0-0-0-0-0-0-0-
- ----------------------------------------------------------0-0-0-0-0-0-0-
PM                                                          .............


[Riff 2, Guitar 1 & 2] - [00:13] - [00:25]
- -------------------------------------------------------------------------------------------------
- -------------------------------------------------------------------------------------------------
- -8--8--8--8--8--8--8--8--8--8--8--8--8--8--8--8--8--8--8--8--8--8--8--8--8--8--8--8--8--8--8--8--
- -12-12-12-12-12-12-12-12-12-12-12-12-12-12-12-12-12-12-12-12-12-12-12-12-12-12-12-12-12-12-12-12-
- -------------------------------------------------------------------------------------------------
- -------------------------------------------------------------------------------------------------
-
- -------------------------------------------------------------------------------------------------
- -------------------------------------------------------------------------------------------------
- -------------------------------------------------------------------------------------------------
- -------------------------------------------------------------------------------------------------
- -0--0--0--0--0--0--0--0--0--0--0--0--0--0--0--0--0--0--0--0--0--0--0--0--0--0--0--0--0--0--0--0--
- -0--0--0--0--0--0--0--0--0--0--0--0--0--0--0--0--0--0--0--0--0--0--0--0--0--0--0--0--0--0--0--0--
PM ...............................................................................................


- -------------------------------------------------------------------------------------------------
- -------------------------------------------------------------------------------------------------
- -8--8--8--8--8--8--8--8--8--8--8--8--8--8--8--8--8-----------------------------------------------
- -12-12-12-12-12-12-12-12-12-12-12-12-12-12-12-12-12----------------------------------------------
- -------------------------------------------------------------------------------------------------
- -------------------------------------------------------------------------------------------------
-
- -------------------------------------------------------------------------------------------------
- -------------------------------------------------------------------------------------------------
- -------------------------------------------------------------------------------------------------
- -------------------------------------------------0-----------------------------------------------
- -0--0--0--0--0--0--0--0--0--0--0--0--0--0--0--0--0-----------------------------------------------
- -0--0--0--0--0--0--0--0--0--0--0--0--0--0--0--0--0-----------------------------------------------
PM ..............................................


[Riff 3] - [00:25] - [00:51] - [x2]
- -[3][3][3][3]-----------------------------[3][3][3][3]-----------------------------
- -[3][3][3][3]-----------------------------[3][3][3][3]-----------------------------
- -----------------------------------------------------------------------------------
- -----------------------------------------------------------------------------------
- ----------------------0-0-------1------------------------------0-0-------1---------
- --------------1p0-1/4-0-0-1/4-0---3p0-1/3--------------1p0-1/4-0-0-1/4-0---3p0-1/3-
PM                      ...                                      ...

- -[3][3][3][3]--------------------------------------------------------------------------------------
- -[3][3][3][3]--------------------------------------------------------------------------------------
- ---------------------------------------------------------------------------------------------------
- ---------------------------------------------------------------------------------------------------
- ----------------------0-0-------1---------11--11--11--1111--11--11--1111--11--11--1111--11--11--11-
- --------------1p0-1/4-0-0-1/4-0---3p0-1/3-11--11--11--1111--11--11--1111--11--11--1111--11--11--11-
PM                      ...                 ........................................................


[Riff 4, Guitar 1 & 2] - [00:51] - [01:01] - [x2]
- ---------------------------------------------------------
- ---------------------------------------------------------
- -7---7---7---8-7---7---7---8-7---7---7---8-7---7---7---8-
- ---------------------------------------------------------
- ---6---6---6-----6---6---6-----6---6---6-----6---6---6---
- ---------------------------------------------------------
-
- ---------------------------------------------------------
- ---------------------------------------------------------
- ---------------------------------------------------------
- -0-------------0-------------0-------------0-------------
- -0-----------0-0-----------0-0-----------0-0-----------0-
- -0-----------0-0-----------0-0-----------0-0-----------0-
PM             .             .             .             .


[Riff 5a] - [01:01] - [01:12]
- -------------------------------------------------10-11-10----10-------------------------
- ----------------------------------------10-11-13----------13----11-13-10-11----10-------
- ----------------------8/10\8----8/10-12-------------------------------------12----10-12-
- -8p0-8/10-8p7-8/10-12--------12---------------------------------------------------------
- ----------------------------------------------------------------------------------------
- ----------------------------------------------------------------------------------------

- -------------------------------------------------10-11-13/17p13-------------------------
- ----------------------------------------10-11-13----------------15----------------------
- ----------------------8/10\8----8/10-12----------------------------14-------------------
- -8p0-8/10-8p7-8/10-12--------12---------------------------------------15----------13----
- -------------------------------------------------------------------------17-13-17-------
- ----------------------------------------------------------------------------------------

[Riff 5b] - [01:01] - [01:12]
- -----------------------------------------------------------------
- -----------------------------------------------------------------
- -----------------------------------------------------------------
- -0-------------------------0---0-0-------------------------0---0-
- -0-------------------------0---0-0-------------------------0---0-
- -0-------------------------0---0-0-------------------------0---0-

- -----------------------------------------------------------------
- -----------------------------------------------------------------
- -----------------------------------------------------------------
- -0-------------------------0---0-0-----------------------0-0-0---
- -0-------------------------0---0-0-----------------------0-0-0---
- -0-------------------------0---0-0-----------------------0-0-0---


[Riff 6, Guitar 1 & 2] - [01:12] - [01:31]
- ---------------------------------------------------------------------------------------------------
- ---------------------------------------------------------------------------------------------------
- -------8---8---8---8---8----------------8---8---8-------8---8---8---8---8----------------8---8---8-
- -0---12--12--12--12--12--12-0---0-0---12--12--12--0---12--12--12--12--12--12-0---0-0---12--12--12--
- -0--------------------------0---0-0---------------0--------------------------0---0-0---------------
- -0--------------------------0---0-0---------------0--------------------------0---0-0---------------
-
- ---------------------------------------------------------------------------------------------------
- ---------------------------------------------------------------------------------------------------
- ---------------------------------------------------------------------------------------------------
- -0-----1---1---1---1---1----0---0-0-----1---1---1-0-----1---1---1---1---1----0---0-0-----1---1---1-
- -0---5---5---5---5---5---5--0---0-0---5---5---5---0---5---5---5---5---5---5--0---0-0---5---5---5---
- -0--------------------------0---0-0---------------0--------------------------0---0-0---------------


- ---------------------------------------------------------------------------------------------------
- ---------------------------------------------------------------------------------------------------
- ----------------------------------------8---8---8-------8---8---8---8---8----------------8---8---8-
- -0--------------------------0---0-0---12--12--12--0---12--12--12--12--12--12-0---0-0---12--12--12--
- -0--------------------------0---0-0---------------0--------------------------0---0-0---------------
- -0--------------------------0---0-0---------------0--------------------------0---0-0---------------
-
- ---------------------------------------------------------------------------------------------------
- ---------------------------------------------------------------------------------------------------
- ---------------------------------------------------------------------------------------------------
- -0--------------------------0---0-0-----1---1---1-0-----1---1---1---1---1----0---0-0-----1---1---1-
- -0--------------------------0---0-0---5---5---5---0---5---5---5---5---5---5--0---0-0---5---5---5---
- -0--------------------------0---0-0---------------0--------------------------0---0-0---------------


- ---------------------------------
- ---------------------------------
- ---------------------------------
- -0---------------0---------------
- -0---------------0---------------
- -0---------------0---------------
-
- ---------------------------------
- ---------------------------------
- ---------------------------------
- -0---------------0---------------
- -0---------------0---------------
- -0---------------0---------------


[Riff 7, Guitar 1 & 2] - [01:31] - [01:43]
- -----------------------------------------------------------------
- -----------------------------------------------------------------
- -14--------------------------------------------------------------
- -0---------------------------------------------------------------
- -12--------------------------------------------------------------
- -0---------------------------------------------------------------
-
- -17--------------------------------------------------------------
- -----------------------------------------------------------------
- -----------------------------------------------------------------
- -----------------------------------------------------------------
- -----------------------------------------------------------------
- -----------------------------------------------------------------
AP ...............................................................


- -----------------------------------------------------------------
- -----------------------------------------------------------------
- -8---------------------------------------------------------------
- -0-----------------------------------------------------------12\-
- -6-----------------------------------------------------------12\-
- -0-----------------------------------------------------------12\-
-
- -17--------------------------------------------------------------
- -----------------15----------------------------------------------
- -------15----12------------------15--------------15----12----14--
- -----------------------12----13--------12----13------------------
- -----------------------------------------------------------------
- -----------------------------------------------------------------
AP ...............................................................


[Riff 8, Guitar 1 & 2] - [01:43] - [01:57]
- -----------------------------------------------------------------
- -----------------------------------------------------------------
- -----------------------------------------------------------------
- -0-------------------------0---0-0-------------------------0---0-
- -0-------------------------0---0-0-------------------------0---0-
- -0-------------------------0---0-0-------------------------0---0-
-
- -----------------------------------------------------------------
- -----------------------------------------------------------------
- -----------------------------------------------------------------
- -12--------------------------------------------------------------
- -----------------------------------------------------------------
- -----------------------------------------------------------------
AP ...............................................................


- ---------------------------------------------------------------------------------
- ---------------------------------------------------------------------------------
- ---------------------------------------------------------------------------------
- -0-------------------------0---0-0-----------------------------------------------
- -0-------------------------0---0-0-----------------------------------------------
- -0-------------------------0---0-0-----------------------------------------------
-
- ---------------------------------------------------------------------------------
- ---------------------------------------------------------------------------------
- ---------------------------------------------------------------------------------
- -12------------------------------12-12-12-12-12-12-12-12-12-12-12-12-12-12-12-12-
- ---------------------------------------------------------------------------------
- ---------------------------------------------------------------------------------
AP ................................
PM                                 ........................


[Riff 9] - [01:57] - [02:41]
- -----------------------------------------------------------------
- -----------------------------------------------------------------
- -----------------------------------------------------------------
- -----3-----3---------2-----2-------------------------------------
- ---------5-----5---------5-----5-----6---------------------------
- -0---------------0---------------0-------------------------------

- -----------------------------------------------------------------
- -----------------------------------------------------------------
- -----------------------------------------------------------------
- -----3-----3---------2-----2-------------------------------------
- ---------5-----5---------5-----5-----6---------------------------
- -0---------------0---------------0-------------------------------

- -----------------------------------------------------------------
- -----------------------------------------------------------------
- -----------------------------------------------------------------
- -----3-----3---------2-----2-------------------------------------
- ---------5-----5---------5-----5-----6---------------------------
- -0---------------0---------------0-------------------------------

- -----------------------------------------------------------------
- -----------------------------------------------------------------
- -----------------------------------------------------------------
- -----3-----3---------2-----2-------------------------------------
- ---------5-----5---------5-----5-----6---------------------------
- -0---------------0---------------0-------------------------------

- -----------------------------------------------------------------
- -----------------------------------------------------------------
- -----------------------------------------------------------------
- -----3-----3---------2-----2-------------------------------------
- ---------5-----5---------5-----5-----6---------------------------
- -0---------------0---------------0-------------------------------

- -----------------------------------------------------------------
- -----------------------------------------------------------------
- -----------------------------------------------------------------
- -----3-----3---------2-----2-------------------------------------
- ---------5-----5---------5-----5---------------------------------
- -0---------------0---------------0-------------------------------

[Riff 10a] - [02:41] - [02:51] - [x2]
- ----------------------------------10/17p13-------------------------------------------------------
- -15-15-15-15-------------------------------15----15-15-15-15-------------------------------------
- ----------------------------------------------14----------------------------------19\14----------
- -------------13----13-------10-13----------------------------13-------10-13----13-------15-------
- ----------------10----10-13-------------------------------------10-13-------10-------------17-12-
- -------------------------------------------------------------------------------------------------

[Riff 10b] - [02:41] - [02:51]
- ---------------------------------------------------------
- ---------------------------------------------------------
- ---------------------------------------------------------
- ---------------------------------------------------------
- -----6\5-----6-6-----------6-6-----------6-6-----------6-
- -----0-------0-0-----------0-0-----------0-0-----------0-

- ---------------------------------------------------------
- ---------------------------------------------------------
- ---------------------------------------------------------
- ---------------------------------------------------------
- -6-----------6-6-----------6-6-----------6-6-----------6-
- -0-----------0-0-----------0-0-----------0-0-----------0-


[Riff 11, Guitar 1 & 2] - [02:51] - [03:00] - [x2]
- -18---18---18---18-18---18---18---18-18---18---18---18-18---18---18---18-
- -x----x----x----x--x----x----x----x--x----x----x----x--x----x----x----x--
- -16---16---16---16-16---16---16---16-16---16---16---16-16---16---16---16-
- -------------------------------------------------------------------------
- -------------------------------------------------------------------------
- -------------------------------------------------------------------------
-
- -------------------------------------------------------------------------
- -------------------------------------------------------------------------
- -------------------------------------------------------------------------
- -------------------------------------------------------------------------
- -6----6----6----6--6----6----6----6--6----6----6----6--6----6----6----6--
- -0----0----0----0--0----0----0----0--0----0----0----0--0----0----0----0--
PM .......................................................................


[Riff 12, Guitar 1 & 2] - [03:00] - [03:12]
- ---------------------------------------------------------------------------------------------------
- ---------------------------------------------------------------------------------------------------
- -------8---8---8---8---8----------------8---8---8-------8---8---8---8---8----------------8---8---8-
- -0---12--12--12--12--12--12-0---0-0---12--12--12--0---12--12--12--12--12--12-0---0-0---12--12--12--
- -0--------------------------0---0-0---------------0--------------------------0---0-0---------------
- -0--------------------------0---0-0---------------0--------------------------0---0-0---------------
-
- ---------------------------------------------------------------------------------------------------
- ---------------------------------------------------------------------------------------------------
- ---------------------------------------------------------------------------------------------------
- -0-----1---1---1---1---1----0---0-0-----1---1---1-0-----1---1---1---1---1----0---0-0-----1---1---1-
- -0---5---5---5---5---5---5--0---0-0---5---5---5---0---5---5---5---5---5---5--0---0-0---5---5---5---
- -0--------------------------0---0-0---------------0--------------------------0---0-0---------------

- --------------------------------------------------
- --------------------------------------------------
- -------8---8---8---8---8--------------------------
- -0---12--12--12--12--12--12-0---0-0---------------
- -0--------------------------0---0-0---------------
- -0--------------------------0---0-0---------------
-
- --------------------------------------------------
- --------------------------------------------------
- --------------------------------------------------
- -0-----1---1---1---1---1----0---0-0---------------
- -0---5---5---5---5---5---5--0---0-0---------------
- -0--------------------------0---0-0---------------


[Riff 13], Guitar 1 & 2] - [03:12] - [03:43]
- -----------------------------------------------------------------
- -----------------------------------------------------------------
- -------------------------7-------------------------------7-------
- -------------------------0-------------------------------0-------
- -0-----------------------5-0---0-0-----------------------5-0---0-
- -0-------------------------0---0-0-------------------------0---0-
PM .                         .......                         .....
- -17--------------------------------------------------------------
- -----------------15----------------------------------------------
- -------15----12------------------15--------------15----12----14--
- -----------------------12----13--------12----13------------------
- -----------------------------------------------------------------
- -----------------------------------------------------------------
AP ...............................................................


- -----------------------------------------------------------------
- -----------------------------------------------------------------
- -------------------------7-------------------------------7-------
- -------------------------0-------------------------------0-------
- -0-----------------------5-0---0-0-----------------------5-0---0-
- -0-------------------------0---0-0-------------------------0---0-
PM .                         .......                         .....
- -17--------------------------------------------------------------
- -----------------15----------------------------------------------
- -------15----12------------------15--------------15----12----14--
- -----------------------12----13--------12----13------------------
- -----------------------------------------------------------------
- -----------------------------------------------------------------
AP ...............................................................


- -----------------------------------------------------------------
- -----------------------------------------------------------------
- -----------------------------------------------------------------
- -----------------0-----------------------------------------------
- -----------------0-----------------------------------------------
- -1b--------------0-----------------------------------------------
-
- -----------------------------------------------------------------
- -----------------------------------------------------------------
- -----------------------------------------------------------------
- -13b-------------12----------------------------------------------
- -----------------------------------------------------------------
- -----------------------------------------------------------------
AP ...............................................................


[Symbols]

PM... Palm Mute notes with (...) under them
AP... Alternate Pick notes with (...) under them
h     Hammer On
p     Pull Off
[ ]   Harmonic
/     Slide Up
\     Slide Down
x     Dead Note
b     Bend
hb    Hold Bend
pb    Pre-Bend
r     Release Bend
(x )  Play Notes x amount of times
~     Let Ring
\\\   Pick Slide Down
///   Pick Slide Up
/ 3 \ Notes are triplets (3 notes in the space of two)
w\    Whammy Bar Down
w/    Whammy Bar Up
wh    Whammy Bar Hold
T     Right Hand Tap
L     Left Hand Tap

:)
Suggest correction
Creating personal tab
Creating personal tab
You can edit any tab online and save it as your Personal.

You can edit, replace or remove any tab part or add personal notes – all changes will be seen only by you.

Personal tabs can be accessed anytime from any device, even offline.
Learn more »
Give kudos to tab author, rate the tab!
1 2 3 4 5
comments
print report bad tab
guest
You may want to rate the tab now too:
select rating
Wanna post a correction for this tab? Suggest correction