Oops, an error
Loading. Please wait.

Vices Like Vipers tab

version 3
version 3

Whole song

Interactive

907 views 1 this week
no commentswrite comment
1 2 3 4 5
3 more votes to show rating
add to favorites
×
Save as Personal and add changes to this tab that will be seen only by you. Learn more ›
×
You can save this tab as Personal to edit and correct it or add notes. All changes will be seen only by you. Learn more »
launch autoscroll
font size
0
reset
how to read this tab
guitar tuner
edit
Autoscroll
slow
fast
+/-
esc
set tempo
stop
Oh, Sleeper:

Vices Like Vipers

I marked this song intermediate only because of
the Sweeping and the Ending Sliding Riff.
Besides These two sections the song is rather easy
to play, but the Sweeping, and Especially the
Ending Sliding Riff can be very difficult to
learn/play.

I've seen alot of tabs for this song on the internet...
alot of them have certain parts of the song that have been
tabbed out wrong, and every single one of them leaves
out the Arpegio Sliding riff at the end of the song.  This is one
of my favorite songs and by far my favorite song to play on guitar,
so i thought i should tab it out correctly with all sections for
others to enjoy aswell.


*Intro*

(Repeat 3 Times)

D----------------------------------|
A----------------------------------|
F----7~------3~------3~------3~----|
C--0---0-0-0---0-0-0---0-0-0---0-0-|
G-0-0---0-0-0---0-0-0---0-0-0---0--|
C----------------------------------|

*Intro**4th Time Only*

|-----------------------|
|-----------------------|
|----7~------3~----/9~--|
|--0---0-0-0---0-0--0~--|
|-0-0---0-0-0---0---0~--|
|-----------------------|


*Bridge*

|----------------------------------------------------------------|
|----------------------------------------------------------------|
|----------------------------------------------------------------|
|-0-0-0-0-0-0-0-0-8-8-8-8-8-8-8-7-8-8-8-8-8-8-8-8-8-8-8-8-8-8-8--|
|-0-0-0-0-0-0-0-0-8-8-8-8-8-8-8-7-7-7-7-7-7-7-7-7-7-7-7-7-7-7-7--|
|-0-0-0-0-0-0-0-0-8-8-8-8-8-8-8-7-7-7-7-7-7-7-7-7-7-7-7-7-7-7-7--|

*Sweeps*

|-------5h10p5-----------5h10p5-----------5h9p5-----------5h9p5--------|
|------6------6---------6------6---------6-----6---------6-----6-------|
|-----7--------7-------7--------7-------7-------7-------7-------7------|
|----7----------7-----7----------7-----7---------7-----7---------7-----|
|-5h8------------8p5h8------------8p5h8-----------8p5h8-----------8p5--|
|----------------------------------------------------------------------|

------------1722p17--------------------17h22p17-------------|
----------18-------18----------------18--------18-----------|
--------19-----------19------------19------------19---------|
------19---------------19--------19----------------19-------|
-17h20-------------------20p17h20--------------------20p17--|
------------------------------------------------------------|

------------1721p17--------------------17h18p17-----------------|
----------18-------18----------------18--------20-18-17---------|
--------19-----------19------------19-------------------18-19~--|
------19---------------19--------19-----------------------------|
-17h20-------------------20p17h20-------------------------------|
----------------------------------------------------------------|

*Sliding Riff*

(Repeat 4 Times)

|--------------------------------------------|------------------------|
|---------------6-6--------------------------|-10--10-10--10-10-10----|
|---------------9-9--------------------------|--X---X--X---X--X--X----|
|-----3/7\3p0--------------------------7p0---|--8---8--8---8--8--8----|
|-7-----------------------5-----5/8----------|------------------------|
|---0---------0-----0h2/3---5h7-----3p0----0-|-----------0------------|

*Sliding Riff 4th time ending*

|------------------------------------------------|
|-10--10-10-10--10--10-10--10-10-10--10-10-10-8--|
|--X---X--X--X---X---X--X---X--X--X---X--X--X-X--|
|--8---8--8--8---8---8--8---8--8--8---8--8--8-7--|
|------------------------------------------------|
|--------------0---0----------------0------------|

---------------------------|
-8-8-8---8---8-8--8-8-8----|
-X-X-X---X---X-X--X-X-X----|
-7-7-7---7---7-7--7-7-7-\--|
------------------------\--|
-------0---0------------\--|

*Chorus*
(Repeat 4 Times)

|------------------------------------------------------------------|
|------------------------------------------------------------------|
|------------------------------------------------------------------|
|-------------------------------------7-7-7-----------7-7-7--------|
|-------5-5-5-------------3-3--------------------------------------|
|-0-0-0-------3-3-3-5-5-5-----5-5-8-8-------8-8-8-8-8-------8-8-8--|

*Pre-Breakdown*

|----------------------------------|
|----------------------------------|
|----------------------------------|
|-----5-5-5-----------3-3-----2-2--|
|----------------------------------|
|-7-7-------7-7-7-5-5-----3-3------|

*Breakdown*
(Repeat 2 Times)

|---------------------------------|
|---------------------------------|
|---------------------------------|
|-0-0------------0---0------------|
|-0-0--00000000--0---0--33333333--|
|-0-0--00000000--0---0--33333333--|

*Pre-Slide2*
(Repeat 4 Times)

|-------------------------|
|-------------------------|
|-------------------------|
|-------------------------|
|-8--7--12--10------------|
|--5--3---8---7--0h3/5h7--|

*Slide 2*
(Repeat 2 Times)

|--------------------------------------------|------------------------|
|---------------6-6--------------------------|-10--10-10--10-10-10----|
|---------------9-9--------------------------|--X---X--X---X--X--X----|
|-----3/7\3p0--------------------------7p0---|--8---8--8---8--8--8----|
|-7-----------------------5-----5/8----------|------------------------|
|---0---------0-----0h2/3---5h7-----3p0----0-|-----------0------------|

*Slide 2 Second Time Ending*
(Repeat 2 Times)

|-------------------------------------------|
|-10-10-10-10-10-10-10-10--8-8-8-8-8-8-8-8--|
|--X--X--X--X--X--X--X--X--X-X-X-X-X-X-X-X--|
|--8--8--8--8--8--8--8--8--7-7-7-7-7-7-7-7--|
|-------------------------------------------|
|-------------------------------------------|

*Pre Slowdown*
(Repeat 2 Times)

Part 1:
|----------------------------------------------------------------|
|----------------------------------------------------------------|
|----------------------------------------------------------------|
|-0-0-0-0-0-0-0-0-8-8-8-8-8-8-8-7-8-8-8-8-8-8-8-8-8-8-8-8-8-8-8--|
|-0-0-0-0-0-0-0-0-8-8-8-8-8-8-8-7-7-7-7-7-7-7-7-7-7-7-7-7-7-7-7--|
|-0-0-0-0-0-0-0-0-8-8-8-8-8-8-8-7-7-7-7-7-7-7-7-7-7-7-7-7-7-7-7--|

Part 2:
(Slowly Bend Up The Second Chord a Half-Step/Minor Second)

|----------------------------------------------------------------------------------------------|
|-3-3-3-3-3-3-3-3-3-10-10-10-10-10-10-10-10-10-10-10-10-10-10-10-10-10-10-10-10-10-10-10-10----|
|----------------------------------------------------------------------------------------------|
|-1-1-1-1-1-1-1-1-1--8--8--8--8--8--8--8--8--8--8--8--8--8--8--8--8--8--8--8--8--8--8--8--8----|
|----------------------------------------------------------------------------------------------|
|----------------------------------------------------------------------------------------------|

*Slowdown*
(Repeat 2 Times)

|-------------------|
|-------------------|
|-------7--7^~------|
|-0--0--X--X--------|
|-0--0--5--5^~------|
|-0--0--------------|

*Killswitch Riff*
(Repeat 4 Times)

|------------|
|------------|
|-9-9-/14~---|
|------------|
|-7-7-/12~---|
|------------|

*2 over 3 Octaves*

|------------------------------------------|
|------------------------------------------|
|-7-7-7-7-7-7-7-7-7-7-7-7-7-7-7-7-7-7-7-7--|
|-X-X-X-X-X-X-X-X-X-X-X-X-X-X-X-X-X-X-X-X--|
|-5-5-5-5-5-5-5-5-5-5-5-5-5-5-5-5-5-5-5-5--|
|------------------------------------------|

*Pre Chorus2*

|--------------------------------------------------|
|-10-10-10-----------------------------------------|
|--------------------------------------------------|
|--------------------------------------------------|
|----------13-13-13-13-13-13-13-13-13-13-13-13-13--|
|--------------------------------------------------|

-----------------------------------------------|
-----------------------------------------------|
--12-12-12-------------------------------------|
-----------------------------------------------|
-----------12-12-12-12-12-12-12-12-12-8-8-8-8--|
-----------------------------------------------|

---------------------------------------------------|
--10-10-10-----------------------------------------|
---------------------------------------------------|
---------------------------------------------------|
-----------13-13-13-13-13-13-13-13-13-13-13-13-13--|
---------------------------------------------------|

-----------------------------------------------|
-----------------------------------------------|
--12-12-12-------------------------------------|
-----------------------------------------------|
-----------12-12-12-12-12-12-12-12-12-8~~~~~~--|
-----------------------------------------------|

*Chorus 2*
(Repeat 2 Times)

|------------------------------------------------------------------|
|------------------------------------------------------------------|
|------------------------------------------------------------------|
|-------------------------------------7-7-7-----------7-7-7--------|
|-------5-5-5-------------3-3--------------------------------------|
|-0-0-0-------3-3-3-5-5-5-----5-5-8-8-------8-8-8-8-8-------8-8-8--|

*Pre Insanity*

|----------------------------------------------|
|----------------------------------------------|
|----------------------------------------------|
|-------------7-7-7-7-7-7-7-7-7-7-7-7-7-7-7-7--|
|---5~----3~--X-X-X-X-X-X-X-X-X-X-X-X-X-X-X-X--|
|-0~--3~5~--5~8-8-8-8-8-8-8-8-8-8-8-8-8-8-8-8--|

*Pre Under Chords*

|----------------------------------|
|----------------------------------|
|----------------------------------|
|----------------------------------|
|-------5-5-5-------------3-3------|
|-0-0-0-------3-3-3-5-5-5-----5-5--|

*Under Chords*
(Plays Under Sweeps)

|-----------------------------------|
|-----------------------------------|
|-----------------------------------|
|-88888888888888887777777777777777--|
|-88888888888888887777777777777777--|
|-88888888888888887777777777777777--|

*Sweeps 2*

|-------5h10p5-----------5h10p5-----------5h9p5-----------5h9p5--------|
|------6------6---------6------6---------6-----6---------6-----6-------|
|-----7--------7-------7--------7-------7-------7-------7-------7------|
|----7----------7-----7----------7-----7---------7-----7---------7-----|
|-5h8------------8p5h8------------8p5h8-----------8p5h8-----------8p5--|
|----------------------------------------------------------------------|

------------1722p17--------------------17h22p17-------------|
----------18-------18----------------18--------18-----------|
--------19-----------19------------19------------19---------|
------19---------------19--------19----------------19-------|
-17h20-------------------20p17h20--------------------20p17--|
------------------------------------------------------------|

------------1721p17--------------------17h18p17-----------------|
----------18-------18----------------18--------20-18-17---------|
--------19-----------19------------19-------------------18-19~--|
------19---------------19--------19-----------------------------|
-17h20-------------------20p17h20-------------------------------|
----------------------------------------------------------------|

*Under Insanity*
(Repeat 4 Times)
(Play Under Insane Sliding Riff)

|---------------------------------|
|---------------------------------|
|---------------------------------|
|-0-0------------0---0------------|
|-0-0--00000000--0---0--33333333--|
|-0-0--00000000--0---0--33333333--|

*Insane Ending Sliding Riff*

|-------------------------12/17------------|
|----------15-----------------------15p10--|
|--------14--14----------------14\10-------|
|------15------15\10/12h15-----------------|
|-12h17------------------------------------|
|------------------------------------------|

------------------------------------------|
-----------15-----------------------------|
---------14--14-----------------14--------|
-------15------15------------------15-12--|
--12h17----------17\---------12-----------|
--------------------5-10-8-7--------------|

--------------------------12/17------------|
-----------15-----------------------15p10--|
---------14--14----------------14\10-------|
-------15------15\10/12h15-----------------|
--12h17------------------------------------|
-------------------------------------------|

--------------------------------------|
-----------15-------------------------|
---------14--14-----------------------|
-------15------15---------------------|
--12h17----------17\------------------|
--------------------5-10-8-7-3-7-3-0--|

--------------------------12/17------------|
-----------15-----------------------15p10--|
---------14--14----------------14\10-------|
-------15------15\10/12h15-----------------|
--12h17------------------------------------|
-------------------------------------------|

--------------------------17h22-22p17---------------|
-----------15------------------------18-------------|
---------14--14------------------------19-----------|
-------15------15\10/12h15---------------19---0--0--|
--12h17------------------------------------20-0--0--|
----------------------------------------------0--0--|
Suggest correction
Creating personal tab
Creating personal tab
You can edit any tab online and save it as your Personal.

You can edit, replace or remove any tab part or add personal notes – all changes will be seen only by you.

Personal tabs can be accessed anytime from any device, even offline.
Learn more »
Give kudos to tab author, rate the tab!
1 2 3 4 5
comments
print report bad tab
guest
Wanna post a correction for this tab? Suggest correction