Oops, an error
Loading. Please wait.

All We Do Acoustic tab

version 1
version 1

Whole song

3,269 views 39 this week
no commentswrite comment
1 2 3 4 5
x 4
add to favorites
×
Save as Personal and add changes to this tab that will be seen only by you. Learn more ›
×
You can save this tab as Personal to edit and correct it or add notes. All changes will be seen only by you. Learn more »
launch autoscroll
font size
0
reset
how to read this tab
guitar tuner
edit
Autoscroll
slow
fast
+/-
esc
set tempo
stop
Author
Difficulty
All We Do - Oh Wonder
Tabbed by hand by Megan Bendall (meganbendall1998@outlook.com)
I've spent the last two days (instead of studying) tabbing this from a piano tutorial onto guitar and it's 
going well.
It all makes sense if you play along to the song to get the timing and everything.


[Intro]

E|------------------------------|------------------------------|
B|------------------------------|------------------------------|
G|-6/8/10-----6/8/10----6/8/10--|-6/8/10-----6/8/10----6/8/10--|
D|--------8----------6---------8|--------8----------6---------8|
A|------------------------------|------------------------------|
E|------------------------------|------------------------------|

[Verse 1]

E|-------------------------------------|-------------------------------------|
B|-------------------------------------|-------------------------------------|
G|-8-8-8-6-8-6----8-8-8-6-8-8-8-6-8-6--|-8-8-8-6-8-6----8-8-8-6-8-8-8-6-8-6--|
D|-------------8----------------------8|-------------8----------------------8|
A|-------------------------------------|-------------------------------------|
E|-------------------------------------|-------------------------------------|
         
                              
[Main Riff]

E|------------------------------|
B|------------------------------|
G|-6/8/10-----6/8/10----6/8/10--|
D|--------8----------6---------8|
A|------------------------------|
E|------------------------------|


[Verse 2]

E|-------------------------------------|-------------------------------------|
B|-------------------------------------|-------------------------------------|
G|-8-8-8-6-8-6----8-8-8-6-8-8-8-6-8-6--|-8-8-8-6-8-6----8-8-8-6-8-8-8-6-8-6--|
D|-------------8----------------------8|-------------8----------------------8|
A|-------------------------------------|-------------------------------------|
E|-------------------------------------|-------------------------------------|


[Chorus]

E|------------------------------------------------------------|------------------------------------|
B|------------------------------------------------------------|------------------------------------|
G|-13-10-8-10----13-10-10-8-6-8-10-----13-10-10/8-6-8-10-10p8-|13-10-8-10---13-10-10-8-8-6-8-10----|
D|------------6--------------------11-------------------------|-----------6---------------------11-|
A|------------------------------------------------------------|------------------------------------|
E|------------------------------------------------------------|------------------------------------|
                                     
                                                         

E|------------------------|
G|-13-10-10-8-6-8-10-10-8-|
D|------------------------|
A|------------------------|
E|------------------------|


[Main Riff]

E|------------------------------|------------------------------|
B|------------------------------|------------------------------|
G|-6/8/10-----6/8/10----6/8/10--|-6/8/10-----6/8/10----6/8/10--|
D|--------8----------6---------8|--------8----------6---------8|
A|------------------------------|------------------------------|
E|------------------------------|------------------------------|


[Verse 3]

E|-------------------------------------|-------------------------------------|
B|-------------------------------------|-------------------------------------|
G|-8-8-8-6-8-6----8-8-8-6-8-8-8-6-8-6--|-8-8-8-6-8-6----8-8-8-6-8-8-8-6-8-6--|
D|-------------8----------------------8|-------------8----------------------8|
A|-------------------------------------|-------------------------------------|
E|-------------------------------------|-------------------------------------|


E|------------------------------------------------|------------------|
B|------------------------------------------------|------------------|
G|-8-8-8-6-8-6----8-8-8-6-8-6-------8-8-8-6-8-6---|-8-8-8--8--8--8-8-|
D|-------------8--------------8-6-8-------------8-|------------------|
A|------------------------------------------------|------------------|
E|------------------------------------------------|------------------|


[Chorus]

E|-------------------------------------------------------------|
B|-------------------------------------------------------------|
G|-13-10-8-10----13-10-10-8-8-6-8-10----13-10-10/8-6-8-10-10p8-|
D|------------6----------------------11------------------------|
A|-------------------------------------------------------------|
E|-------------------------------------------------------------|


E|------------------------------------------------------------|
B|------------------------------------------------------------|
G|-13-10-8-10-----13-10-10-8-6-8-10----13-10-10-8-6-8-10-10p8-|
D|------------6---------------------11------------------------|
A|------------------------------------------------------------|
E|------------------------------------------------------------|


[Main Riff]                                               

E|------------------------------|------------------------------|
B|------------------------------|------------------------------|
G|-6/8/10-----6/8/10----6/8/10--|-6/8/10-----6/8/10----6/8/10--|
D|--------8----------6---------8|--------8----------6---------8|
A|------------------------------|------------------------------|
E|------------------------------|------------------------------|


[Verse 4]

E|-------------------------------------|
B|-------------------------------------|
G|-8-8-8-6-8-6----8-8-8-6-8-8-8-6-8-6--|
D|-------------8----------------------8|
A|-------------------------------------|
E|-------------------------------------|

E|------------------------------------------|------------------------------------|
B|------------------------------------------|------------------------------------|
G|-8-8-8-6-8-6----8-8-8-6-8-8-8-6-8-6-------|-8-8-8-6-8-6----8--8--8---8-8-8-----|
D|-------------8----------------------8-6-8-|-------------8----------------------|
A|------------------------------------------|------------------------------------|
E|------------------------------------------|------------------------------------|



************************************

| p  Pull-off
| /  Slide up

************************************

            
            
Suggest correction
Creating personal tab
Creating personal tab
You can edit any tab online and save it as your Personal.

You can edit, replace or remove any tab part or add personal notes – all changes will be seen only by you.

Personal tabs can be accessed anytime from any device, even offline.
Learn more »
comments
print report bad tab
guest
You may want to rate the tab now too:
select rating
Wanna post a correction for this tab? Suggest correction