Oops, an error
Loading. Please wait.

Chippoke Na Ai No Uta chords

version 1
version 1

Whole song

11,192 views 126 this week
2 commentsread comments
1 2 3 4 5
x 8
add to favorites
×
Save as Personal and add changes to this tab that will be seen only by you. Learn more ›
×
You can save this tab as Personal to edit and correct it or add notes. All changes will be seen only by you. Learn more »
launch autoscroll
font size
0
reset
transpose
0
reset
simplify chords
display chords
guitar tuner
edit
Autoscroll
slow
fast
+/-
esc
set tempo
stop
Strumming
There is no strumming pattern for this song yet. and get +5 IQ
Chords by Tarao on youtube. 

Please go watch his tutorial here: https://www.youtube.com/watch?v=mnknrpEvtwc

Capo 2

Intro (pluck): 
| G | Cadd9 G | G | Cadd9 G Dsus4 | 

Plucking tab:

e|---------------------------------------------------------------|
B|---------------------------------------------------------------|
G|--0---------0------------------------------------------0-------|
D|-------4---------0-----------0--------------------0---------0--|
A|-----------------------3-----------3-------2-------------------|
E|---------------------------------------------------------------|

e|-----------------------------------------------------------|
B|-----------------------------------------------------------|
G|--0---------0----------------------------------------------|
D|-------4---------0-----------0-----------------------------|
A|-----------------------3-----------3-------2---------0-----|
E|-----------------------------------------------------------|


[VERSE]

G              Am7  
  Ikinari utai dashitari
B7                Em7
  Ikinari KISU wo shitari
C              G                    Am7          Dsus4  D  
  KIMI ni wa takusan 'Gomen ne' tte iwanakucha ne
G                   Am7
  Nakushichau no ga kowakute
B7                             Em7
  Uso bakka tsuite shimau BOKU dakedo
        C         G                Am7       Dsus4   D 
Demo ne KIMI no mae de wa hontou no jibun de itakatta nda


[CHORUS]

C          D                  Em7                 C                D
BOKU no sonzai ga KIMI ni hikari ni kage wo otoshite shimau to shite mo
C            D                Em7        D          C       G
KIMI no sonzai wa dareka wo terashi tsuzuketeite hoshii nda
     Em7       D        C         G 
BOKU ga ite mo BOKU ga inakute mo
     Am7        Dsus4
KIMI wa koko de kangayaite


[pluck full intro]


[VERSE]

G                     Am7
  Motto issho ni -- warattari
B7                     Em7
  Motto naitari sureba yokatta ne
  C       G               Am7             Dsus4    D
Sunao na omoi ni ima sara ki--teiru-- nda
G                Am7
  Itsumo KIMI wo omotteiru yo
B7                  Em7
  Soko kashiko ni sagashiteiru yo
  C          G               Am7      Dsus4
KIMI no sono koe ga kikitai na-- ima sugo koko de


[CHORUS]

C           D              Em7         D     C             D
KIMI no egao ga BOKU wo kurayami kara tsureda--shite kureta nda
     C             D              Em7        D         C    B7
Demo BOKU no yokogao wa KIMI no egao  kumorasete shimau nda
     Em7         D        C        G
KIMI ga ite mo KI--MI ga inakute mo
    Am7         Dsus4  G           B7 
BOKU wa koko ni irarena--i


[BRIDGE]

Em                 Dsus4 
  Te no hira ni tsukanda yume wo 
C            Dsus4  
  Ima wa oitsuzukete    ikou--
Em              Dsus4   
  Hitori demo ki---tto 
  C       Dsus4  
Koete   yuke-- ru
Em              Dsus4  
   Tatoe ima wa gen--jit  su  ni
C             G               A7
  Shibararete iki gurushikute mo
                 Dsus4          D ----
Yoyake wa tashikani----   yatte kuru


[CHORUS]

C              D               Em7        D   C              D
BOKU no koko uta ga kimi no senaka wo sotto oshite kureru to ii na 
C           D                 Em7      D          C     D
Tsutaetai ko--to nani hitotsu tsutaerarenai BOKU dakara
C          D               Em7        D       C              D
KIMI no egao ga BOKU wo kurayami kara tsure--da--shite kureta nda  
    C                 D              Em7         D          C     B7
Itsuka BOKU no e--ga--o ga KIMI no egao no SHINKURO suro to ii na
     Em7         D     C        G
KIMI to BOKU ga deaeta kono kiseki
   Am7         Dsus4        G
Kokoro kara kansha shiteiru -- yo
    Em7         D         C          G
Itsuka kono uta   KIMI ni todoku ka na
   Am7      Dsus4    
Chippoke na ai no uta -- (pluck full intro)


[instrumental]
| G | Bm7 | C | D7sus4 D | (repeat x3)
                         Ai no uta ------ [2nd repeat going into 3rd repeat]

End with: (play in the style of ending chorus)             
| Em7 Bm7 | CM7 G/B | Am7 (2) Dsus4 D | G |


Alternative Plucking End - exclude instrumental and ending bar (Acoustic ver.):

e|---------------------------------------------------------------|
B|---------------------------------------------------------------|
G|--0---------0----------------------0-------------------0-------|
D|-------4---------0-----------0--------------------0---------0--|
A|-----------------------2-------------------2-------------------|
E|---------------------------------------------------------------|

e|------------------------------------------------------3-----|
B|-------------0----------------------------------------------|
G|-------------------0----------------0-----------------------|
D|--------0---------------------0-----------------------------|
A|--3--------------------2-----------------2-----0------------|
E|------------------------------------------------------3-----|


-END-

            
            
Suggest correction
Creating personal tab
Creating personal tab
You can edit any tab online and save it as your Personal.

You can edit, replace or remove any tab part or add personal notes – all changes will be seen only by you.

Personal tabs can be accessed anytime from any device, even offline.
Learn more »
comments
print report bad tab
2 comments total.
0 reply
iimam1821 10 May 19, 2017 06:06 AM

love it

0 reply
judify 38 May 21, 2017 09:58 PM

Thanks :) all credit goes to Tarao though :)

guest
You may want to rate the tab now too:
select rating
Wanna post a correction for this tab? Suggest correction