Oops, an error
Loading. Please wait.

Autobahn Tab

38,918 views 9 this week
no commentswrite comment
1 2 3 4 5
x 5
add to favorites
launch autoscroll
font size
0
reset
how to read this tab
guitar tuner
Autoscroll
slow
fast
+/-
esc
set tempo
stop
Help us to improve Ultimate-Guitar.com Take our survey!
×
Akkorde die ihr braucht!

   Edur  Cdur  Gdur  Ddur
e|--0-----3-----3-----5-----|
B|--0-----5-----3-----7-----|
G|--1-----5-----4-----7-----|
D|--2-----5-----5-----7-----|
A|--2-----3-----5-----5-----|
E|--0-----x-----3-----x-----|


[Intro]

Erklärung Intro:
So wie ich es spiel funktioniert das nur wirklich mit einer Akkustik Gitarre.
Ihr greift die Akkorde, schlagt aber nicht an, sondern haut mit dem Mittelfinger oder
Ringfinger auf den Korpus.
Dann klingen die Seiten, aber eher zart . Das "klack" kriegt ihr hin indem ihr mitm
auf den Korpus haut!
Das ganze braucht etwas übung, aber nicht aufgeben!
In Tab sieht das so aus ("Dumm" = mitm finger aufn korpus haun, "klack" mitm plektron
korpus haun):


   Dumm Dumm Klack Dumm Dumm Klack Dumm Dumm Klack Dumm Dumm Klack
e|--0----0----------3----3-----------3---3----------5-----5---------|
B|--0----0----------5----5-----------3---3----------7-----7---------|
G|--1----1----------5----5-----------4---4----------7-----7---------|
D|--2----2----------5----5-----------5---5----------7-----7---------|
A|--2----2----------3----3-----------5---5----------5-----5---------|
E|--0----0----------x----x-----------3---3----------x-----x---------|(x5)


[Verse 1]

hier wieder die gleiche technik nur ein bisschen komplizierter. "Dumm" = fingerschlag
= plektronschlag
Jetzt spielt ihr abwechselnd: "Dumm" - Akkord - "Dumm" Akkord - "klack" etc. relativ
das ganze.
(Das braucht noch mehr übung :P, aber immer noch nicht aufgeben)

"Ick will zum chilln....."

   Dumm    Dumm  Klack   Dumm   Dumm   Klack
e|--x---0---x---0-x-------x---3---x---3-x-----|
B|--x---0---x---0-x-------x---5---x---5-x-----|
G|--x---1---x---1-x-------x---5---x---5-x-----|
D|--x---2---x---2-x-------x---5---x---5-x-----|
A|--x---2---x---2-x-------x---3---x---3-x-----|
e|--x---0---x---0-x-------x---3---x---3-x-----|


  Dumm    Dumm   Klack   Dumm   Dumm   Klack
e|--x---3---x---3-x-------x---5---x---5-x-----|
B|--x---3---x---3-x-------x---7---x---7-x-----|
G|--x---4---x---4-x-------x---7---x---7-x-----|
D|--x---5---x---5-x-------x---7---x---7-x-----|
A|--x---5---x---5-x-------x---5---x---5-x-----|
e|--x---3---x---3-x-------x-------x-----x-----|


[Verse 1] 
fortsetzung:


Beim: "Na fein da steig ich ein da komm ich mit en kleenes stück" geht es los:

  Dumm    Dumm  Klack   Dumm   Dumm   Klack
e|--x---0---x---0-x-------x---0---x---0-x-----|
B|--x---0---x---0-x-------x---0---x---0-x-----|
G|--x---1---x---1-x-------x---1---x---1-x-----|
D|--x---2---x---2-x-------x---2---x---2-x-----|
A|--x---2---x---2-x-------x---2---x---2-x-----|
e|--x---0---x---0-x-------x---0---x---0-x-----|


   Dumm    Dumm  Klack   Dumm   Dumm   Klack
e|--x---0---x---0-x-------x---0---x---0-x-----|
B|--x---0---x---0-x-------x---0---x---0-x-----|
G|--x---1---x---1-x-------x---1---x---1-x-----|
D|--x---2---x---2-x-------x---2---x---2-x-----|
A|--x---2---x---2-x-------x---2---x---2-x-----|
e|--x---0---x---0-x-------x---0---x---0-x-----|

Und wohin fahrma, auf der fartamorgana........

   Dumm    Dumm  Klack   Dumm   Dumm   Klack
e|--x---0---x---0-x-------x---3---x---3-x-----|
B|--x---0---x---0-x-------x---5---x---5-x-----|
G|--x---1---x---1-x-------x---5---x---5-x-----|
D|--x---2---x---2-x-------x---5---x---5-x-----|
A|--x---2---x---2-x-------x---3---x---3-x-----|
e|--x---0---x---0-x-------x---3---x---3-x-----|


  Dumm    Dumm   Klack   Dumm   Dumm   Klack
e|--x---3---x---3-x-------x---5---x---5-x-----|
B|--x---3---x---3-x-------x---7---x---7-x-----|
G|--x---4---x---4-x-------x---7---x---7-x-----|
D|--x---5---x---5-x-------x---7---x---7-x-----|
A|--x---5---x---5-x-------x---5---x---5-x-----|
e|--x---3---x---3-x-------x-------x-----x-----|

einmal um den globus.........

e|--0----0----------3----3-----------3---3----------5-----5---------|
B|--0----0----------5----5-----------3---3----------7-----7---------|
G|--1----1----------5----5-----------4---4----------7-----7---------|
D|--2----2----------5----5-----------5---5----------7-----7---------|
A|--2----2----------3----3-----------5---5----------5-----5---------|
E|--0----0----------x----x-----------3---3----------x-----x---------|

und wenn einer aufs klo muss

e|--0----0----------3----3-----------3---3----------5-----5---------|
B|--0----0----------5----5-----------3---3----------7-----7---------|
G|--1----1----------5----5-----------4---4----------7-----7---------|
D|--2----2----------5----5-----------5---5----------7-----7---------|
A|--2----2----------3----3-----------5---5----------5-----5---------|
E|--0----0----------x----x-----------3---3----------x-----x---------|


[Bridge]

e|----0-0-0-0-0-0-0-0---|
B|--3-5-5-5-5-5-5-5-5---|
G|----------------------|
D|----------------------|
A|----------------------|
E|----------------------|


[Chorus]

Das Leben ist wie eine große Autobahn .....

  Dumm    Dumm  Klack   Dumm   Dumm   Klack
e|--x---0---x---0-x-------x---0---x---0-x-----|
B|--x---0---x---0-x-------x---0---x---0-x-----|
G|--x---1---x---1-x-------x---1---x---1-x-----|
D|--x---2---x---2-x-------x---2---x---2-x-----|
A|--x---2---x---2-x-------x---2---x---2-x-----|
e|--x---0---x---0-x-------x---0---x---0-x-----|


   Dumm    Dumm  Klack   Dumm   Dumm   Klack
e|--x---0---x---0-x-------x---0---x---0-x-----|
B|--x---0---x---0-x-------x---0---x---0-x-----|
G|--x---1---x---1-x-------x---1---x---1-x-----|
D|--x---2---x---2-x-------x---2---x---2-x-----|
A|--x---2---x---2-x-------x---2---x---2-x-----|
e|--x---0---x---0-x-------x---0---x---0-x-----|


[Verse 2]

Steppten durch wüsten...........

e|--0----0----------3----3-----------3---3----------5-----5---------|
B|--0----0----------5----5-----------3---3----------7-----7---------|
G|--1----1----------5----5-----------4---4----------7-----7---------|
D|--2----2----------5----5-----------5---5----------7-----7---------|
A|--2----2----------3----3-----------5---5----------5-----5---------|
E|--0----0----------x----x-----------3---3----------x-----x---------|

e|--0----0----------3----3-----------3---3----------5-----5---------|
B|--0----0----------5----5-----------3---3----------7-----7---------|
G|--1----1----------5----5-----------4---4----------7-----7---------|
D|--2----2----------5----5-----------5---5----------7-----7---------|
A|--2----2----------3----3-----------5---5----------5-----5---------|
E|--0----0----------x----x-----------3---3----------x-----x---------|


Das Ruder Fest in Budapest

Dumm    Dumm  Klack   Dumm   Dumm   Klack
e|--x---0---x---0-x-------x---0---x---0-x-----|
B|--x---0---x---0-x-------x---0---x---0-x-----|
G|--x---1---x---1-x-------x---1---x---1-x-----|
D|--x---2---x---2-x-------x---2---x---2-x-----|
A|--x---2---x---2-x-------x---2---x---2-x-----|
e|--x---0---x---0-x-------x---0---x---0-x-----|


   Dumm    Dumm  Klack   Dumm   Dumm   Klack
e|--x---0---x---0-x-------x---0---x---0-x-----|
B|--x---0---x---0-x-------x---0---x---0-x-----|
G|--x---1---x---1-x-------x---1---x---1-x-----|
D|--x---2---x---2-x-------x---2---x---2-x-----|
A|--x---2---x---2-x-------x---2---x---2-x-----|
e|--x---0---x---0-x-------x---0---x---0-x-----|


   Dumm    Dumm  Klack   Dumm   Dumm   Klack
e|--x---0---x---0-x-------x---3---x---3-x-----|
B|--x---0---x---0-x-------x---5---x---5-x-----|
G|--x---1---x---1-x-------x---5---x---5-x-----|
D|--x---2---x---2-x-------x---5---x---5-x-----|
A|--x---2---x---2-x-------x---3---x---3-x-----|
e|--x---0---x---0-x-------x---3---x---3-x-----|


  Dumm    Dumm   Klack   Dumm   Dumm   Klack
e|--x---3---x---3-x-------x---5---x---5-x-----|
B|--x---3---x---3-x-------x---7---x---7-x-----|
G|--x---4---x---4-x-------x---7---x---7-x-----|
D|--x---5---x---5-x-------x---7---x---7-x-----|
A|--x---5---x---5-x-------x---5---x---5-x-----|
e|--x---3---x---3-x-------x-------x-----x-----|


es war voll grass wa, auf madadaskar

e|--0----0----------3----3-----------3---3----------5-----5---------|
B|--0----0----------5----5-----------3---3----------7-----7---------|
G|--1----1----------5----5-----------4---4----------7-----7---------|
D|--2----2----------5----5-----------5---5----------7-----7---------|
A|--2----2----------3----3-----------5---5----------5-----5---------|
E|--0----0----------x----x-----------3---3----------x-----x---------|

[Bridge]


e|----0-0-0-0-0-0-0-0---|
B|--3-5-5-5-5-5-5-5-5---|
G|----------------------|
D|----------------------|
A|----------------------|
E|----------------------|


Continuing order:
 
[Chorus]
[Verse]
[Bridge]
[Verse]
[Bridge]
[Chorus]



************************************

| x  Dead note

************************************
Suggest correction
comments
print report bad tab
guest
You may want to rate the tab now too:
select rating
Wanna post a correction for this tab? Suggest correction