Oops, an error
Loading. Please wait.

Dschungelpartei Bass Tab

1,398 views 1 this week
no commentswrite comment
1 2 3 4 5
2 more votes to show rating
add to favorites
launch autoscroll
font size
0
reset
guitar tuner
Autoscroll
slow
fast
+/-
esc
set tempo
stop
Help us to improve Ultimate-Guitar.com Take our survey!
×
Author
Difficulty
novice
This is my first TAB,so please vote 

This song is made of only 2 notes:A and #A

Intro Drums:....
1.part
G:-----------------|----------------|
D:-----------------|----------------|
A:-----------------|----------------|   
E:-5-5-55--6-6-----|-6-6-66-5-5-----|

G:-----------------|----------------|
D:-----------------|----------------|
A:-----------------|----------------|   
E:-5-5-55--6-6-----|-6-6-66-5-5-----|

G:-----------------|----------------|
D:-----------------|----------------|
A:-----------------|----------------|   
E:-5-5-55--6-6-----|-6-6-66--5------|

Pre-Chorus:"Die Tür geht auf..."

G:-----------------|
D:-----------------|
A:-----------------| 3x
E:-555---666-------|

G:-----------------|
D:-----------------|
A:-----------------|
E:-66666666--------|

Chorus:"Tanz der Zoo"
G:-----------------|----------------|
D:-----------------|----------------|
A:-----------------|----------------|  2x 
E:-5555---6-6------|-666----555-----|

2.Part
G:-----------------|----------------|
D:-----------------|----------------|
A:-----------------|----------------|   
E:-5-5-55--6-6-----|-6-6-66-5-5-----|

G:-----------------|----------------|
D:-----------------|----------------|
A:-----------------|----------7-4---|   
E:-5-5-55--6-6-----|-6-6-66-5-------|

G:-----------------|----------------|
D:-----------------|----------------|
A:---7-4----8-5----|---8-5----7-4---|
E:-5-----56--------|-6-----65-------|

G:-----------------|----------------|
D:-----------------|----------------|
A:---7-4----8-5----|----------------|
E:-5-----56--------|-6--------------|

Pre-Chorus:

Chorus:

Drumsolo:

3.Part:
G:-----------------|----------------|
D:-----------------|----------------|
A:---7-4----8-5----|---8-5----7-4---|
E:-5-----56--------|-6-----65-------|

Go on with this above,the last Chorus is played like this,too.

I hope its  correct,thank you.have fun.Its easy to play,but it sounds quite good ;)
Suggest correction
Give kudos to tab author, rate the tab!
1 2 3 4 5
comments
print report bad tab
guest
You may want to rate the tab now too:
select rating
Wanna post a correction for this tab? Suggest correction