Oops, an error
Loading. Please wait.

Skinhead Bass Tab

131 views 1 this week
no commentswrite comment
1 2 3 4 5
3 more votes to show rating
add to favorites
launch autoscroll
font size
0
reset
guitar tuner
×
Best way to learn
"Skinhead"
Autoscroll
slow
fast
+/-
esc
set tempo
stop
  -Intro: D-A-B-G


  -Estrofa:D-A-B-G

        D           A               B              G
e|-------------|-------------|-------------|----------------|
B|-------------|-------------|-------------|----------------|
G|-------------|-------------|-------------|----------------|
D|-----4-7-4---|-------------|-------------|----------------|
A|---5---------|-----4-7-4---|-----6-9-6---|-------2-2--5---|
E|-------------|---5---------|---7---------|---3-3----------|


Coro:

        G            A               D
e|---------------|---------------|---------------------|
B|---------------|---------------|---------------------|
G|---------------|---------------|---------------------|
D|---------------|---------------|---------------------|
A|---------------|---------------|---5-5-5[n...]-------|
E|--3-3-3[Nº...]-|---5-5-5[N?...]|---------------------|


[Nº...] = Uds vean cuantas veces tocan las cuerdas.
Suggest correction
Give kudos to tab author, rate the tab!
1 2 3 4 5
comments
print report bad tab
guest
You may want to rate the tab now too:
select rating
Wanna post a correction for this tab? Suggest correction