Oops, an error
Loading. Please wait.

Skinhead Girl Bass Tab

236 views 1 this week
no commentswrite comment
1 2 3 4 5
3 more votes to show rating
add to favorites
launch autoscroll
font size
0
reset
guitar tuner
×
Best way to learn
"Skinhead Girl"
Autoscroll
slow
fast
+/-
esc
set tempo
stop
       Estrofas:
G|------------------------------------------
D|----------4-4-----------------------------
A|---555555----7-7--5-----------4-4-5-5-7---
E|-----------------------555555-------------

---------------------------------------------|
---------------------------------------------|
--------------4-4-5-5-4----------4-4---------|
-----3333333-------------5555555-----7-7-5---|

Los Punteos no son Exactamente =les
pero Suenan Bien de todos modos.....xD


       Coro:
G|-------------------------------------------------
D|-------------------------------------------------
A|---55555555--------------------------------------
E|--------------555555555---7777777777---333333----

----------------------------------------------------|
----------------------------------------------------|
----55555555555--------------------333333333--------|
---------------------55555555555--------------------|
Suggest correction
Give kudos to tab author, rate the tab!
1 2 3 4 5
comments
print report bad tab
guest
You may want to rate the tab now too:
select rating
Wanna post a correction for this tab? Suggest correction