Oops, an error
Loading. Please wait.

Only A Lad bass

version 1
version 1

Whole song

Interactive

19 views 1 this week
no commentswrite comment
1 2 3 4 5
3 more votes to show rating
add to favorites
×
Save as Personal and add changes to this tab that will be seen only by you. Learn more ›
×
You can save this tab as Personal to edit and correct it or add notes. All changes will be seen only by you. Learn more »
launch autoscroll
font size
0
reset
guitar tuner
backing track
0:00
0:00
edit
Autoscroll
slow
fast
+/-
esc
set tempo
stop
Oingo Boingo - Only A Lad
Tabbed by electricbunny




[Intro]
     
G|----------------6---6---6---6---|6---6---6---6---6---6---6---6---|
D|--------------------------------|--------------------------------|
A|--------------------------------|--------------------------------|
E|--------------------------------|--------------------------------|
 
       
G|6---6---6---6---6---6---6---6---|6---6---6---6---6---6---6---6---|
D|--------------------------------|--------------------------------|
A|--------------------------------|--------------------------------|
E|--------------------------------|--------------------------------|
 
       
G|6---6---6---6---6---6---6---6---|--------------------------------|
D|--------------------------------|--------------------------------|
A|--------------------------------|4---4---4---4---4---4---4---4---|
E|--------------------------------|--------------------------------|
 
       
G|--------------------------------|--------------------------------|
D|--------------------------------|--------------------------------|
A|4---4---4---4---4---4---4---4---|4---4---4---4---4---4---4---4---|
E|--------------------------------|--------------------------------|
 
     
G|--------------------------------|--------------------------------|
D|--------------------------------|--------------------------------|
A|4---4---4---4---4---4---4---4---|4---4---4---4---4---4---4---4---|
E|--------------------------------|--------------------------------|
 
     
G|--------------------------------|--------------------------------|
D|--------------------------------|--------------------------------|
A|4---4---4---4---4---4---4---4---|4---4---4---4---4---4---4---4---|
E|--------------------------------|--------------------------------|
 
     
G|--------------------------------|--------------------------------|
D|--------------------------------|------------------------1-------|
A|4---4---4---4---4---4---4---4---|4---4---4---4---4---4-----------|
E|--------------------------------|--------------------------------|
 
      
G|--------------------------------|--------------------------------|
D|--------------------------------|--------------------------------|
A|1---1---1---1---1---1---1---1---|1---1---1---1---1---1---1---1---|
E|--------------------------------|--------------------------------|
 
     
G|--------------------------------|--------------------------------|
D|--------------------------------|--------------------------------|
A|1---1---1---1---1---1---1---4---|4---4---4---4---4---4---4---4---|
E|--------------------------------|--------------------------------|
 
      
G|--------------------------------|--------------------------------|
D|--------------------------------|--------------------------------|
A|0---1---1---1---1---1---1---1---|1---1---1---1---1---1---1---1---|
E|--------------------------------|--------------------------------|
 
    
G|--------------------------------|--------------------------------|
D|--------------------------------|--------------------------------|
A|1---1---1---1---1---1---1---1---|4---4---4---4---4---4---4---4---|
E|--------------------------------|--------------------------------|
 
  
[Verse 1]
     
G|--------------------------------|--------------------------------|
D|--------------------------------|--------------------------------|
A|4---0---1---1---1---1---1---1---|1---1---1---1---1---1---1---1---|
E|--------------------------------|--------------------------------|
 
       
G|--------------------------------|--------------------------------|
D|--------------------------------|--------------------------------|
A|1---1---1---1---1---1---1---1---|4---4---4---4---4---4---4---4---|
E|--------------------------------|--------------------------------|
 
      
G|--------------------------------|--------------------------------|
D|--------------------------------|--------------------------------|
A|1---1---1---1---1---1---1---1---|1---1---1---1---1---1---1---1---|
E|--------------------------------|--------------------------------|
 
      
G|--------------------------------|--------------------------------|
D|--------------------------------|--------------------------------|
A|1---1---1---1---1---1---1---1---|4---4---4---4---4---4---4---4---|
E|--------------------------------|--------------------------------|
 
  
[Pre Chorus]    
G|--------------------------------|--------------------------------|
D|1-------------------------------|0-------------------3-----------|
A|--------------------1-----------|--------4-----------------------|
E|--------2-----------------------|--------------------------------|
 
       
G|--------------------------------|--------------------3-----------|
D|--------------------------------|3-------4-----------------------|
A|4-------1-----------4-----------|--------------------------------|
E|--------------------------------|--------------------------------|
 
      
G|--------------------------------|--------------------------------|
D|4-------------------------------|--------------------------------|
A|--------------------------------|----------------1---4-----------|
E|--------------------4---4-------|4-----------4-------------------|
 
        
G|--------------------------------|--------------------------------|
D|--------------------------------|--------------------------------|
A|1-------------------------------|----------------1-------1-------|
E|----------------4---4-----------|4-------------------------------|
 
        
G|--------------------------------|--------------------------------|
D|--------------------------------|0-----------------------3-------|
A|--------------------1-----------|------------4-------------------|
E|4---2---2-----------------------|--------------------------------|
 
      
G|--------------------------------|------------------------3-------|
D|--------------------------------|----3-------4-------------------|
A|----4-------1-----------4-------|--------------------------------|
E|--------------------------------|--------------------------------|
 
      
G|--------------------------------|--------------------------------|
D|----4---------------------------|--------------------------------|
A|--------------------------------|--------------------1---4-------|
E|--------------------4---4-------|----4-----------4---------------|
 
       
G|--------------------------------|----3-------1-2-3-------1-------|
D|--------------------------------|--------------------------------|
A|----1---------------------------|--------------------------------|
E|----------------------4---------|--------------------------------|
 
  
[Verse 2]   
G|--------------------------------|--------------------------------|
D|--------------------------------|--------------------------------|
A|1---1---1---1---1---1---1---1---|1---1---1---1---1---1---1---1---|
E|--------------------------------|--------------------------------|
 
      
G|--------------------------------|--------------------------------|
D|--------------------------------|--------------------------------|
A|1---1---1---1---1---1---4---4---|4---4---4---4---4---4---4---0---|
E|--------------------------------|--------------------------------|
 
   
G|--------------------------------|--------------------------------|
D|--------------------------------|--------------------------------|
A|--1-----1---1---1---1---1---1---|1---1---1---1---1---1---1---1---|
E|--------------------------------|--------------------------------|
 
   
G|--------------------------------|--------------------------------|
D|--------------------------------|--------------------------------|
A|1---1---1---1---1---1---1---1---|4---4---4---4---4---4---4---4---|
E|--------------------------------|--------------------------------|
 
   
[Pre Chorus]    
G|--------------------------------|--------------------------------|
D|0-------------------------------|----1---------------3-----------|
A|--------------------1-----------|4-------4-----------------------|
E|--------2-----------------------|--------------------------------|
 
       
G|--------------------------------|--------------------3-----------|
D|--------------------------------|3-------4-----------------------|
A|4-------1-----------4-----------|--------------------------------|
E|--------------------------------|--------------------------------|
 
       
G|--------------------------------|--------------------------------|
D|4-------------------------------|--------------------------------|
A|--------------------------------|----------------1---4-----------|
E|----------------4---4-----------|4-----------4-------------------|
 
      
G|--------------------------------|--------------------------------|
D|--------------------------------|--------------------------------|
A|1-------------------------------|----------1---------------------|
E|--------------------4---4-------|----4---------------------------|
 
    
[Chorus]  
G|--------------------------------|--------------------------------|
D|--------------------------------|----------------3-------4-------|
A|----------------1---1---1-------|1---1---------------------------|
E|------------4---------------4---|--------------------------------|
 
     
G|--------------------------------|--------------------------------|
D|--------------------------------|----------------3---4---4-------|
A|--------------------1---1---1---|----1---1-----------------------|
E|2---2-----------4---------------|4-------------------------------|
 
       
G|--------------------------------|--------------------------------|
D|--------------------------------|----------------3---4---4---4---|
A|--------------------1---1---1---|----1---1-----------------------|
E|2---------------4---------------|4-------------------------------|
 
     
G|--------------------------------|--------------------------------|
D|--------------------------------|1---1---3-----------------------|
A|------------------------3-------|----------------4---4---1-------|
E|2---2-----------4---------------|----------------------------4---|
 
       
G|--------------------------------|--------------------------------|
D|--------------------------------|----------------3---4---4---4---|
A|4-------------------1-------1---|----1---1-----------------------|
E|----------------4---------------|4-------------------------------|
 
     
G|--------------------------------|--------------------------------|
D|--------------------------------|--------------3---4---4---4-----|
A|--------------------1---1---1---|----1---1-----------------------|
E|2---------------4---------------|4-----------------------------2-|
 
       
G|--------------------------------|--------------------------------|
D|--------------------------------|----------------3---4---4---3---|
A|------------------1---1---1-----|--1---1-------------------------|
E|--2-----------4---------------4-|--------------------------------|
 
        
G|--------11--12--13------11------|10------8-------6-------5-------|
D|4-------------------------------|--------------------------------|
A|--------------------------------|--------------------------------|
E|--------------------------------|--------------------------------|
 
       
G|3-------1-------1---------------|--------------------------------|
D|------------------------4-------|3-------1-----------------------|
A|--------------------------------|----------------4-------3-------|
E|--------------------------------|--------------------------------|
 
   
[Verse 3]     
G|--------------------------------|--------------------------------|
D|--------------------------------|--------------------------------|
A|1---------------1---1---1---1---|1---1---1---1---1---1---1---1---|
E|--------3-----------------------|--------------------------------|
 
       
G|--------------------------------|--------------------------------|
D|--------------------------------|--------------------------------|
A|1---1---1---1---1---1---1---1---|1---1---4---4---4---4---4---4---|
E|--------------------------------|--------------------------------|
 
       
G|--------------------------------|--------------------------------|
D|--------------------------------|--------------------------------|
A|4---4---4---4---1---1---1---1---|1---1---1---1---1---1---1---1---|
E|--------------------------------|--------------------------------|
 
      
G|--------------------------------|--------------------------------|
D|--------------------------------|--------------------------------|
A|1---1---1---1---1---1---1---1---|1---1---4---4---4---4---4---4---|
E|--------------------------------|--------------------------------|
 
        
G|--------------------------------|--------------------------------|
D|--------------------------------|--------------------------------|
A|4---4---4---4-------------------|----------------4---------------|
E|----------------2---------------|--------------------------------|
 
      
G|--------------------------------|--------------------------------|
D|--------------------------------|--------------------------------|
A|----------------1---1---1---1---|1---1---1---1---1---1---1---1---|
E|4---------3---------------------|--------------------------------|
 
       
G|--------------------------------|--------------------------------|
D|--------------------------------|--------------------------------|
A|1---1---1---1-------------------|----------------4---------------|
E|----------------2---------------|--------------------------------|
 
       
G|--------------------------------|--------------------------------|
D|--------------------------------|3-------1-----------------------|
A|------------------------0-------|------------3-------------------|
E|4-------3-------1---------------|----------------2---2---2---2---|
 
  
[Interlude]    
G|--------------------------------|--------------------------------|
D|--------------------------------|--------------------------------|
A|--------------------------------|--------------------------------|
E|2---2---2---2---2---2---2---2---|2---2---2---2---2---2---2---2---|
 
  
G|--------------------------------|--------------------------------|
D|--------------------------------|--------------------------------|
A|--------------------------------|----------------2---2---2---2---|
E|2---2---2---2---2---2---2---2---|2---2---2---2-------------------|
 
      
G|--------------------------------|--------------------------------|
D|--------------------------------|--------------------------------|
A|2---2---2---2---2---2---2---2---|2---2---2---2---2---2---2---2---|
E|--------------------------------|--------------------------------|
 
       
G|--------------------------------|--------------------------------|
D|--------------------------------|--------------------------------|
A|2---2---2---2---2---2---2---2---|2---2---2---2---1---1---1---1---|
E|--------------------------------|--------------------------------|
 
     
G|--------------------------------|--------------------------------|
D|--------------------------------|2---3---2---3-------------------|
A|1---1---1---1---1---1---1---1---|----------------1---1---1---1---|
E|--------------------------------|--------------------------------|
 
        
G|--------------------------------|----------------3-----------2---|
D|--------------------------------|2---3---3-----------------------|
A|1---1---1---1---1---1---1---1---|--------------------------------|
E|--------------------------------|--------------------------------|
 
       
G|--------0-----------------------|--------------------------------|
D|--------------------3-----------|2-----------0-------------------|
A|--------------------------------|------------------------1-------|
E|--------------------------------|--------------------------------|
 
       
G|--------------------------------|--------------------------------|
D|--------------------------------|--------------------------------|
A|----0---------------------------|--------------------------------|
E|----------------3-----------1---|--------0-----------------------|
 
 
[Verse 4]      
G|--------------------------------|--------------------------------|
D|--------------------------------|--------------------------------|
A|1---1---1---1---1---1---1---1---|1---1---1---1---1---1---1---1---|
E|--------------------------------|--------------------------------|
 
       
G|--------------------------------|--------------------------------|
D|--------------------------------|--------------------------------|
A|1---1---1---1---1---1---4---4---|4---4---4---4---4---4---4---0---|
E|--------------------------------|--------------------------------|
 
        
G|--------------------------------|--------------------------------|
D|--------------------------------|--------------------------------|
A|1---1---1---1---1---1---1---1---|1---1---1---1---1---1---1---1---|
E|--------------------------------|--------------------------------|
 
      
G|--------------------------------|--------------------------------|
D|--------------------------------|------------------------0-------|
A|1---1---1---1---1---1---4---4---|4---4---4---4---4---4-----------|
E|--------------------------------|--------------------------------|
 
 [Pre Chorus]     
G|--------------------------------|--------------------------------|
D|------------------------0-------|------------3-------------------|
A|------------1-------------------|4-----------------------4-------|
E|2-------------------------------|--------------------------------|
 
       
G|--------------------------------|------------3-------------------|
D|----------------------3---------|4-----------------------4-------|
A|1-----------4-------------------|--------------------------------|
E|--------------------------------|--------------------------------|
 
      
G|--------------------------------|--------------------------------|
D|--------------------------------|--------------------------------|
A|--------------------------------|--------1---4-----------1-------|
E|--------4---4-----------4-------|4-------------------------------|
 
      
G|--------------------------------|--------------------------------|
D|--------------------------------|--------------------------------|
A|--------------------------------|1-------------------------------|
E|--------4---4-----------4-------|--------------------------------|
 
   
[Chorus]     
G|--------------------------------|--------------------------------|
D|--------------------------------|----3---4---4-------------------|
A|--------1-------1-------1-------|--------------------------------|
E|----4---------------4-----------|--------------------2---2-------|
 
     
G|--------------------------------|--------------------------------|
D|--------------------------------|--------3---4---4---4-----------|
A|--------1---1---1-------1---1---|--------------------------------|
E|----4---------------4-----------|------------------------2---2---|
 
        
G|--------------------------------|--------------------------------|
D|--------------------------------|--------3---4---4---------------|
A|------------1---1---1-------1---|1-------------------------------|
E|--------4---------------4-------|------------------------2---2---|
 
       
G|11--12--13------11------10------|8-------6-------5-------3-------|
D|--------------------------------|--------------------------------|
A|--------------------------------|--------------------------------|
E|--------------------------------|--------------------------------|
 
       
G|1-------1-----------------------|--------------------------------|
D|----------------4-------3-------|1-------------------------------|
A|--------------------------------|--------4-------3-------1-------|
E|--------------------------------|--------------------------------|
 
      
G|--------------------------------|--------------------------------|
D|--------------------------------|----3---4---4-------------------|
A|--------1-------1-------1-------|--------------------------------|
E|4-------------------4-----------|--------------------2---2-------|
 
      
G|--------------------------------|--------------------------------|
D|--------------------------------|--------3---4---4---4-----------|
A|--------1---1---1-------1---1---|--------------------------------|
E|----4---------------4-----------|------------------------2---2---|
 
      
G|--------------------------------|--------------------------------|
D|--------------------------------|--------3---4---4---------------|
A|------------1---1---1-------1---|1-------------------------------|
E|--------4---------------4-------|------------------------2---2---|
 
        
G|11--12--13------11------10------|8-------6-------5-------3-------|
D|--------------------------------|--------------------------------|
A|--------------------------------|--------------------------------|
E|--------------------------------|--------------------------------|
 
 
[Bridge]      
G|1-----------------------6-------|----------------2-------3-------|
D|----------------2---3-----------|3---2---1---1-------------------|
A|--------1-----------------------|--------------------------------|
E|--------------------------------|--------------------------------|
 
     
G|------------------------6-----10|----------------5-------3-------|
D|----------------2---3-----------|3---2---1-----------------------|
A|--------1-----------------------|--------------------------------|
E|--------------------------------|--------------------------------|
 
       
G|----2-------------------6-------|----------------2-------3-------|
D|----------------2---3-----------|3---2---1-----------------------|
A|--------1-----------------------|--------------------------------|
E|--------------------------------|--------------------------------|
 
     
G|1-------------------------------|--------------------------------|
D|----4---------------------------|--------------------------------|
A|--------------------------------|--------4-----------------------|
E|--------2-----------------------|--------------------------------|
 
  
G|--------------------------------|--------------------------------|
D|--------------------------------|--------------------------------|
A|------------------------4-------|--------------------------------|
E|--------2-----------------------|--------------------------------|
 
   
[Chorus]   
G|--------------------------------|--------------------------------|
D|--------------------------------|------------3-------4---4-------|
A|----------------1---1---1-------|1---1---------------------------|
E|------------4---------------4---|----------------------------2---|
 
        
G|--------------------------------|--------------------------------|
D|--------------------------------|------------3-------4-----------|
A|----------------1---1---1-------|1---1---------------------------|
E|2-----------4---------------4---|----------------------------2---|
 
       
G|--------------------------------|--------------------------------|
D|--------------------------------|------------3---4---4---4-------|
A|----------------1---1---1-------|1---1---------------------------|
E|2---------4-----------------4---|----------------------------2---|
 
        
G|--------------------------------|--------------------------------|
D|------------------------1---1---|3-------------------------------|
A|----------------3---------------|--------4---4---1-------4-------|
E|2-------4-----------------------|--------------------4-----------|
 
     
G|--------------------------------|--------------------------------|
D|--------------------------------|--------3-------4---------------|
A|----------1---1---1-------1---1-|--------------------------------|
E|------4---------------4---------|------------------------2---2---|
 
      
G|--------------------------------|--------------------------------|
D|--------------------------------|--------3---4---4---4-----------|
A|------------1---1---1-------1---|1-------------------------------|
E|--------4---------------4-------|------------------------2---2---|
 
       
G|--------------------------------|--------------------------------|
D|--------------------------------|----3---4---4---4---------------|
A|------------1---1-------1---1---|--------------------------------|
E|--------4-----------4-----------|--------------------2---2-------|
 
        
G|11--12--13------11------10--9---|8-------6-------5-------3-------|
D|--------------------------------|--------------------------------|
A|--------------------------------|--------------------------------|
E|--------------------------------|--------------------------------|
 
       
G|1-------1-----------------------|--------------------------------|
D|----------------4-------3-------|1-------------------------------|
A|--------------------------------|--------4-------3-------2-------|
E|--------------------------------|--------------------------------|
 
  
[Outro]      
G|--------------------------------|--------------------------------|
D|--------------------------------|--------------------------------|
A|1---1---1---1---1---1---1---1---|1---1---1---1---1---1---1---1---|
E|--------------------------------|--------------------------------|
 
      
G|--------------------------------|--------------------------------|
D|--------------------------------|--------------------------------|
A|1---1---1---1---1---1---4---4---|4---4---4---4---4---4---0---1---|
E|--------------------------------|--------------------------------|
 
      
G|--------------------------------|--------------------------------|
D|--------------------------------|--------------------------------|
A|1---1---1---1---1---1---1---1---|1---1---1---1---1---1---1---1---|
E|--------------------------------|--------------------------------|
 
    
G|--------------------------------|--------------------------------|
D|--------------------------------|--------------------------------|
A|1---1---1---1---1---4---4---4---|4---4---4---4---4---4---0---1---|
E|--------------------------------|--------------------------------|
 
       
G|--------------------------------|--------------------------------|
D|--------------------------------|--------------------------------|
A|1---1---1---1---1---1---1---1---|1---1---1---1---1---1---1---1---|
E|--------------------------------|--------------------------------|
 
      
G|--------------------------------|--------------------------------|
D|--------------------------------|--------------------------------|
A|1---1---1---1---1---4-----------|------------4-------------------|
E|--------------------------------|----4---------------------------|
 
Suggest correction
Creating personal tab
Creating personal tab
You can edit any tab online and save it as your Personal.

You can edit, replace or remove any tab part or add personal notes – all changes will be seen only by you.

Personal tabs can be accessed anytime from any device, even offline.
Learn more »
Give kudos to tab author, rate the tab!
1 2 3 4 5
comments
print report bad tab
guest
You may want to rate the tab now too:
select rating
Wanna post a correction for this tab? Suggest correction