Oops, an error
Loading. Please wait.

Giratoria Tab

by Ojas
11 views 1 this week
no commentswrite comment
1 2 3 4 5
3 more votes to show rating
add to favorites
launch autoscroll
font size
0
reset
how to read this tab
guitar tuner
×
Best way to learn
"Giratoria"
Autoscroll
slow
fast
+/-
esc
set tempo
stop
Cualquier duda: Paaaro@

Riff1:
E/--------------------------------------------------------------|
B/--------------------------------------------------------------|
G/--------------------------------------------------------------|
D/--------------------------------------------------------------|
A/-6-6-6-6-6-6-6-0-4-4-4-4-4-4-4-0-4-4-4-4-4-4-4-0-2-2-2-2-2-2-2|
E/--------------------------------------------------------------|

Riff2:
E/----------------------------------------------------------
B/----------------------11---------11---------9---------9---
G/-----8-------8-----10----10---10----10---10---10---10---10
D/---8---8---8---8------------------------------------------
A/-6-------6------------------------------------------------
E/-----------------9----------9----------9---------9--------

E/----------------|
B/-----7-------7--|
G/---8---8---8---8|
D/----------------|
A/----------------|
E/-7-------7------|

D#m   C#
Sobra sobra
      B
Sobra sobra

Riff1
Respirar, tras las horas
Escribir lo que no se va
Riff1
Y olvidar lo que sobra
Permitís lo que no cambias
    D#m       C#
Y saber distinguir
                       B
Lo importante y lo que no lo es
    D#m        C#
Abrazarme a sentir
               B
Y olvidar despojadamente


     F#
Como una mañana
           G#m
Que empaña cualquier ventana
         B
Y engaña tu dolor
    D#m         C#        B
Olvidando voy a recordar más


Riff2
Enfrentar la memoria
Es decir dar un paso más
Riff2
Obligar a esta euforia
O tristeza a quedarse atrás
    D#m       C#
Y saber distinguir
                       B
Lo importante y lo que no lo es
    D#m        C#
Abrazarme a sentir
               B
Y olvidar despojadamente lo que

D#m   C#
Sobra sobra
      B
Sobra sobra

     F#
Como una mañana
           G#m
Que empaña cualquier ventana
         B
Y engaña tu dolor
    D#m         C#        B
Olvidando voy a recordar más

Pre-Solo: D#5 - C#5 - C5 - B5 x2

Solo:
E/--------------------------------------------------|
B/-7-6---------6~6-6-6-6~6-7-7-6---------9~9-9-9-9~9|
G/-----8-6-----------------------8-6----------------|
D/---------8-6-----------------------8-6------------|x2
A/--------------------------------------------------|
E/--------------------------------------------------|

Como una mañana
Que empaña cualquier ventana
Y engaña tu dolor
Olvidando voy a recordar más

Como una mañana
Que empaña cualquier ventana
Y engaña tu dolor
Olvidando voy a recordar más
Suggest correction
Give kudos to tab author, rate the tab!
1 2 3 4 5
comments
print report bad tab
guest
You may want to rate the tab now too:
select rating
Wanna post a correction for this tab? Suggest correction