Oops, an error
Loading. Please wait.

Naranja Chords

by Ojas
22 views 1 this week
no commentswrite comment
1 2 3 4 5
3 more votes to show rating
add to favorites
launch autoscroll
font size
0
reset
transpose
0
reset
display chords
guitar tuner
Autoscroll
slow
fast
+/-
esc
set tempo
stop
Help us to improve Ultimate-Guitar.com Take our survey!
×
Toda la canción va en 5tas.
El punteo se superpone con los acordes.

INTRO:
D# G# Cm G# G

E----------------------------------------------------------
B----------------------------------------------------------
D-8-8-8-7--------------------------------------------------
G---------8-10-10-10-8-----------------------6-6-6-5-5-5-5-
A----------------------10-11-11-11-10-10-8-6-6-6-6-5-5-5-5-
E--------------------------------------------4-4-4-3-3-3-3-


D#
Basto en mí
      G#                       D#
Hay pedazos de naranjas que nunca probé
        G#                    Cm
Aunque siempre lleve dentro mío
     G#
Algo para después

D#
La canción
      G#                    D#
se parece a una muleta en este bajón
       G#                  Cm
De perder la perspectiva nueva
        G#               Cm
Y en el techo una revelación
        G#
Y la fuerza en el corazón

D#                    G#
Vuelve a verme, no estoy torcido
Cm                 G#        A#
Siempre, siempre, siempre lo mismo


INTRO (otra vez y se puede sumar este punteo)
E---------------------------------
B-11---11---9-8---11---11--13-11-8
D----8----8-----8----8----8-------      Repite 2 veces
G---------------------------------
A---------------------------------
E---------------------------------

Basto en mi.... (arranca otra vez)
Suggest correction
Give kudos to tab author, rate the tab!
1 2 3 4 5
comments
print report bad tab
guest
You may want to rate the tab now too:
select rating
Wanna post a correction for this tab? Suggest correction