Oops, an error
Loading. Please wait.

Ahora Y Todo Tab

6 views 1 this week
no commentswrite comment
1 2 3 4 5
3 more votes to show rating
add to favorites
launch autoscroll
font size
0
reset
how to read this tab
guitar tuner
Autoscroll
slow
fast
+/-
esc
set tempo
stop
Help us to improve Ultimate-Guitar.com Take our survey!
×
DonMurru


hola gente dejo la intro de este tema. la que estaba antes estaba mal,
en algunas partes no encajaban algunas notas pero esta suena mas parecida


e|---------------------------------------|
B|-------8-7-----------------------------|
G|-----7-----7----(7)7/5-5--5454--2~-----|
D|--/7---------(8)-----------------------|
A|---------------------------------------|
E|---------------------------------------|

e|---------------------------------------|
B|-------8-7-----------------------------|
G|-----7-----7----(7)7/5-5--5454--7~-----|
D|--/7---------(8)-----------------------|
A|---------------------------------------|
E|---------------------------------------|

e|------------------------------------------------------|
B|------------------------------------------------------|
G|-----7~----7~-----7-7-7-7-7---------7~----7~---7-7-7~-|
D|--5~----5~-------7-7-7-7-7-------5~----5~-----7-7-7---|
A|------------------------------------------------------|
E|------------------------------------------------------|


nota
las notas q estan en () serian como notas fantasmas o algo asi.
escuchen bien el tema para entender lo que qiero decir
Suggest correction
Give kudos to tab author, rate the tab!
1 2 3 4 5
comments
print report bad tab
guest
You may want to rate the tab now too:
select rating
Wanna post a correction for this tab? Suggest correction