Oops, an error
Loading. Please wait.

Anda Diciendo Tab

28 views 3 this week
no commentswrite comment
1 2 3 4 5
3 more votes to show rating
add to favorites
launch autoscroll
font size
0
reset
how to read this tab
guitar tuner
×
Best way to learn
"Anda Diciendo"
Autoscroll
slow
fast
+/-
esc
set tempo
stop
A D A E X 2

Riff:

     A            D                 E                        A
1)-----------------|-----------------------------------|---------------------------------------|
2)----------------|-----------------------------------|-------------------------------10-(11)-|
3)----------------|-----------------------------------|------------------------------9--------|
4)--7--10-9-7---|-7--------------------------------|--------7-------7--9--11--12----------|
5)----------------|------L-9-10-9---7--9-10----7--|--L-7-9-----7--9----------------------|
6)----------------|-----------------------------------|---------------------------------------|

               D            A                   E
1)---------------|-------------------|---------------------------------|-----------------|
2)--10--12(13)-|--13-12-10-------|-10-----------------------------|-------------------|
3)--------------|---------------11--|------L-11-12-11-9--11-(12)-9-|-------------------|
4)--------------|-------------------|---------------------------------|---L-9-11-9-7---|
5)--------------|-------------------|---------------------------------|-------------9-7-|
6)--------------|-------------------|---------------------------------|------------------|


( ) : Estirar la cuerda hasta que de el tono del parentesis
L   : Ligar las notas

A                  D
chico caíste otra vez en el juego otra vez mas te perdiste en espejos
A                 E
y ahora la soledad anda diciendo
el doble error no tiene doble perdón y lo que se escucha ya no tiene opción
el viento que empuja tu alma desnuda el misterio

RIFF

G                        E
a veces quisiera poder acercarte a este cielo
a veces quisiera seguir acostado en tus sueños
gracias por darme la llave de esta despedida
G                   D
gracias por abandonar esta balsa perdida

y ahora que va a ser de todos tus miedos
si ya no hay un pecho para protegerlos
mientras navego tu mar navego mis sueños
nena otra vez caíste en el juego
otra vez mas el placer venció al cielo
y ahora tu soledad anda diciendo

a veces quisiera

      ¡¡¡...OJOS LOCOS ES SOLO ROCK AND ROLL, PERO ME GUSTA...!!!
            AGUANTEN LOS PIBES DE LA PLACITA
Suggest correction
Give kudos to tab author, rate the tab!
1 2 3 4 5
comments
print report bad tab
guest
You may want to rate the tab now too:
select rating
Wanna post a correction for this tab? Suggest correction