Oops, an error
Loading. Please wait.

Caidos Desde El Cielo Bass Tab

10 views 1 this week
no commentswrite comment
1 2 3 4 5
3 more votes to show rating
add to favorites
launch autoscroll
font size
0
reset
guitar tuner
Autoscroll
slow
fast
+/-
esc
set tempo
stop
Help us to improve Ultimate-Guitar.com Take our survey!
×
intro :

D--5---------12-------7--9--7-----7--9--7--9/11----------------
A--------------------------------------------------9--7--5-----

con la base que ya esta en la pagina

intermedio:
0:47 ; 1:37

   (mi)
 G--1-1--------------
 D--2-2--------------
 A--2-2--0--2--3-3---3-2--2-0--
 E--0-0--------------

   (mi)
 G--1-1--------------
 D--2-2--------------
 A--2-2--0--2--3-3---3h2---0---
 E--0-0--------------


intermedio:
2:41

   (mi)
 G--1-1------------------
 D--2-2------------------
 A--2-2--0--2--3--3--2--0--0--2--4/7--5--4--2
 E--0-0------------------

   (mi)
 G--1-1-----------
 D--2-2------------2-2-2 (tapado)
 A--2-2--0--2--3--
 E--0-0-----------


y tus sueños son los sueños que quiero atrapar

E--3-2-0--3-2-0---LA-

FINAL:
abrazar
E--3-2-0--3-2-0---LA---
alcanzar
E--3-2-0--3-2-0---LA---
atrapar
E--3-2-0--3-2-0---RE---
Suggest correction
Give kudos to tab author, rate the tab!
1 2 3 4 5
comments
print report bad tab
guest
You may want to rate the tab now too:
select rating
Wanna post a correction for this tab? Suggest correction