Oops, an error
Loading. Please wait.

Demasiado Lomo Tab

11 views 1 this week
no commentswrite comment
1 2 3 4 5
3 more votes to show rating
add to favorites
launch autoscroll
font size
0
reset
how to read this tab
guitar tuner
×
Best way to learn
"Demasiado Lomo"
Autoscroll
slow
fast
+/-
esc
set tempo
stop
INTRO:  G - C x 4   D

R1: G
1)--------------------------|
2)--------3------5---3------|
3)--------3------5---3------|
4)----5------5-----------5--|
5)--------------------------|
6)--------------------------|

R2: C
1)------------------------|
2)------------------------|
3)----5--5-------------5--|
4)----5--5----------------|
5)-------------6-L-7------|
6)------------------------|

L   : Ligar las notas


A             E          Bm
vive bajo angustia permanente
A             E          Bm
trabaja y no sabe lo que gana
A             E           Bm
siempre se la lleva la brigada
A             E            Bm     D-D-D-D
y todos los días pierde el cielo


G       C
fuma y queda como loca
G      C
fuma todo lo que encuentre
G      C
que mañana es otro día
G     C                D   Dsus4  D
y la gente se convierte


se pasea con su cola
ajustada indiferente
una tanga que te cobra
el boleto mas caliente


1)------------------------|-----------------------------|
2)------------------------|-----------------------------|
3)--2222--4--2--4--6--2---|---------2--4-(e>)--2-----2--|
4)---------------------4--|--2--4-----------------4-----|
5)------------------------|-----------------------------|
6)------------------------|-----------------------------|


1)----------------------------|--------------------------------|
2)----------------------------|--------------------------------|
3)---2222--4--2--4--2--4-L-6--|---------2--4-(e>)--2--------2--|
4)----------------------------|--2--4-----------------4-----2--|
5)----------------------------|--------------------------------|
6)----------------------------|--------------------------------|

(e>)  : Estirar

L  : Ligar las notas


LA ZAPADA RnR ~ MI MEJOR VICIO ~
Suggest correction
Give kudos to tab author, rate the tab!
1 2 3 4 5
comments
print report bad tab
guest
You may want to rate the tab now too:
select rating
Wanna post a correction for this tab? Suggest correction