Oops, an error
Loading. Please wait.

Deportivo Rock Sud Chords

17 views 1 this week
no commentswrite comment
1 2 3 4 5
3 more votes to show rating
add to favorites
launch autoscroll
font size
0
reset
transpose
0
reset
display chords
guitar tuner
×
Best way to learn
"Deportivo Rock Sud"
Autoscroll
slow
fast
+/-
esc
set tempo
stop
1)----------------------------------------------|
2)----------------------------------------------|
3)----0----0---3---0---3---0------5-5-----3-----|
4)----0----0---3---0---3---0------5-5-----3-----|
5)----------------------------------------------|
6)----------------------------------------------|

1)-------------------|
2)-------------------|
3)-----------3-------|
4)---0--3-3----5-----|
5)-------------------|
6)-------------------|


G                     F
esta vez es mejor que me hables
     C               G
tu cuerpo tiene ganas otra vez
es la vez es mejor que te hable
mis sueños tienen ganas otra vez


G             C         F       G
quiero que el dia no sea tu boca
que el tiempo no cambie las horas
que el cielo no sea volver

esta vez es mejor que te calles
tu mente tiene ganas otra vez
esta vez es mejor que dispares
mi pecho muerde balas otra vez

quiero tu cuerpo mojando mi boca
tu espalda que mata y perdona
tus piernas que muerden y ven


D              F     G
ahora en esta nada es mejor

esta vez esa piel llego tarde
pero tu mente muere por morder
esta vez te perdi por desearte
jugue en el deportivo de la sed

quiero jugar mi destino en tu boca
tu espalda que mata y perdona
tus piernas que muerden y ven


LA ZAPADA RnR ~ MI MEJOR VICIO ~
Suggest correction
Give kudos to tab author, rate the tab!
1 2 3 4 5
comments
print report bad tab
guest
You may want to rate the tab now too:
select rating
Wanna post a correction for this tab? Suggest correction