Oops, an error
Loading. Please wait.

Esconde Tab

16 views 1 this week
no commentswrite comment
1 2 3 4 5
3 more votes to show rating
add to favorites
launch autoscroll
font size
0
reset
how to read this tab
guitar tuner
×
Best way to learn
"Esconde"
Autoscroll
slow
fast
+/-
esc
set tempo
stop
R1: E
1)-------------------------------/-------------------------------|
2)-------------------------------/-------------------------------|
3)----9---7----------9---7----7--/--9---7------9---7-------7--6--|
4)------------9--------------9---/----------9-----------9--------|
5)-------------------------------/-------------------------------|
6)-------------------------------/-------------------------------|


R2:A
1)--------------------|
2)--------------------|
3)---7--6----------9--|
4)-----------7--9-----|
5)--------------------|
6)--------------------|


E
La lluvia sostiene tus labios
A           E
Sobre un inmenso cielo
E
Acá quede tan mezclado
A              E
Con la suerte y el azar

D            A               E
Esconden un mar tus ojos perdidos
D         A                  E
Esconden cielos que no podes dar


Buscando siempre te encuentro
Donde queda ese olvido
Acá quede tan mezclado
Con la arena y este mar

Esconden un mar tus ojos perdidos
Esconden cielos que no podes dar

D           A                  E
pero mis silencios te dicen a gritos
D            A          E
Nena, nadie gana si no juega


Con el revés de tu suerte
Me hice dueño de tu olvido
Y a punta de esa tarjeta
el corazón me late mal

Esconden un mar tus ojos perdidos
Esconden cielos que no podes dar
Esconde un silencio que te pide a gritos

Y nena nadie gana si no juega!


INTER: A


   C  A  G A  C  A x 2                       G  A D  C  A
1)---------------------------------------/----------------------|
2)---------------------------------------/----------------------|
3)---5--2-----2-----5---2------2---5--2--/----2----7--5--4--2---|
4)----------5----------------5-----------/--5-------------------|
5)---------------------------------------/----------------------|
6)---------------------------------------/----------------------|

A                 C
Cayo al revés tu suerte
      G            A
sin pagar lo prometido
                   C
Tanto todo y nada dicho
G              A
A veces puede matar


A-C-G-     A
       y no puedo esperarte

LA ZAPADA RNR ~ MI MEJOR VICIO ~
Suggest correction
Give kudos to tab author, rate the tab!
1 2 3 4 5
comments
print report bad tab
guest
You may want to rate the tab now too:
select rating
Wanna post a correction for this tab? Suggest correction