Oops, an error
Loading. Please wait.

Esta Noche En Este Mundo Chords

1 view 1 this week
no commentswrite comment
1 2 3 4 5
3 more votes to show rating
add to favorites
launch autoscroll
font size
0
reset
transpose
0
reset
display chords
guitar tuner
Autoscroll
slow
fast
+/-
esc
set tempo
stop
Help us to improve Ultimate-Guitar.com Take our survey!
×
ESTA NOCHE EN ESTE MUNDO


Notas:

   F#   B*   B    C#    G#m
e--2---------7----9------4-----
B--2---------7----9------4-----
G--3----4----8----10-----4-----
D--4----4----9----11-----6-----
A--4----2----9----11-----6-----
E--2---------7----9------4-----


INTRO x2: F# B* Fa#
          B* x2


Verso 1

F#
  Otra luna en el balcón
F#
  El pichón de crack voló
B
  Va a buscar algo mejor
B
  Y otra calle tiembla

F#
  Apagó las luces y durmió
F#
  Intentó dormirse sin soñar
B
  Otro día más y para el
B
  La vida pasó sin novedad


Intermedio 1 (igual que en la intro)


Verso 2 (igual que el verso 1)

Esta vez se va a jugar
Jura que no pierde más
El frío soplaba en la ciudad
Mañana será noticia

Tu silencio ruge sin parar
de este barro si que no safaz
Nada escapa fuera, lo sabes
solo un poco lejos nada más


C#           F#           B
   Y otra noche, ya no hay que esperar
C#        F#         G#m              C#
   Tanta libertad te mata, te puede salvar..


Intermedio 2 (igual que en la intro)


Verso 3 (igual que el verso 1 y 2)

Por ahí debes estar
Ya nos vamos a encontrar
Te sigo buscando con mi voz
Te sigo soñando

Apagó las luces y durmió
Intentó dormirse sin soñar
Otro día más y para el
La vida pasó sin novedad


C#           F#           B
   Y otra noche, ya no hay que esperar
C#        F#         G#m              C#
   Tanta libertad te mata, me puede salvar..


Solo: F# B x2
Final: F#


Intro:
e-----------------------------------
B-----------------------------------
G-----------------------------------
D--4-4/6/8--6/8/9--9/8/6--8/6/4-----
A-----------------------------------
E-----------------------------------


  (F#)    (B-F#)         B x2
e------------------------------------
B------------------------------------
G------6-6--------6-6----------------
D--4--4-4-----4--4-4-------4/9-9-8-4-
A------------------------------------
E------------------------------------


Cualquier corrección o por lo que sea: matideyong@


--->Rey Chatran<---
Suggest correction
Give kudos to tab author, rate the tab!
1 2 3 4 5
comments
print report bad tab
guest
You may want to rate the tab now too:
select rating
Wanna post a correction for this tab? Suggest correction