Oops, an error
Loading. Please wait.

Estrella Chords

9 views 1 this week
no commentswrite comment
1 2 3 4 5
3 more votes to show rating
add to favorites
launch autoscroll
font size
0
reset
transpose
0
reset
simplify chords
display chords
guitar tuner
×
Best way to learn
"Estrella"
Autoscroll
slow
fast
+/-
esc
set tempo
stop
 Intro:    Arpegiando E - G - A

(1)   Arpegiando
 E                  G
Tu corazón es una extraña casa
     A                E
una noche lenta sin mañana
E               G
solo tus ojos abiertos
     A              E
los que me llevan dentro...

Punteo
6 --0------0-------------0--2--3--------------------3-------------0---3---0--
5 -------------------------------------1h2----0-------------0----------------
4 ---------------------------------------------------------------------------
3 ---------------------------------------------------------------------------
2 ---------------------------------------------------------------------------
1 ---------------------------------------------------------------------------

(1) Normal
E                    G
Tu corazón es una extraña casa
     A           E
una noche lenta sin mañana
E               G
solo tus ojos abiertos
     A            E
los que me llevan dentro...

(2)
               E
Quiero estar como vos
 G
ser como vos
A             E
asi de vacia... X2

(3)
           C5                        G5
Alma fria en el estanque del miedo se desbordó
           C5                         G5
Una dosis de soledad que te contagia día a día
           C5                       G5
Ojo cielo el manantial del sueño se secó
        C5        G5                  D5        G5
es mejor ser chapparon que aqui brillando...    ohhh


Punteo
6 --0------0-------------0--2--3--------------------3-------------0---3---0-------
5 -------------------------------------1h2----0-------------0---------------------
4 --------------------------------------------------------------------------------


Acá va un gran tema, le falta una parte al punteo pero las bases son estas. 
espero que lo disfruten.
si quieren pasarme la parte que falta del punteo manden un correo ahi a la casilla.
suerte . facha.!
Suggest correction
Give kudos to tab author, rate the tab!
1 2 3 4 5
comments
print report bad tab
guest
You may want to rate the tab now too:
select rating
Wanna post a correction for this tab? Suggest correction