Oops, an error
Loading. Please wait.

A Good Idea At The Time tab

by OK Go
3,116 views 3 this week
2 commentsread comments
1 2 3 4 5
x 5
add to favorites
×
Save as Personal and add changes to this tab that will be seen only by you. Learn more ›
×
You can save this tab as Personal to edit and correct it or add notes. All changes will be seen only by you. Learn more »
launch autoscroll
font size
0
reset
how to read this tab
guitar tuner
edit
Autoscroll
slow
fast
+/-
esc
set tempo
stop
Author
----------------------------------------------------------------------
                             A Good Idea At The Time – Ok Go
----------------------------------------------------------------------
Tabbed by: Sean Law
Email:

Tuning: Standard (EADGBe)

Intro/Verse:

e|------------------------|
B|------------------------|
G|------------------------|
D|------------------------|
A|--0--0--0--0--0--0------|
E|--5--5--5--5--5--5------|x alot
(After you play each note, press on the strings with your right hand to stop it from ringing out)

*This also sounds right, so play it whatever way you think sounds best*
e|------------------------|
B|------------------------|
G|------------------------|
D|--2--2--2--2--2--2------|
A|--0--0--0--0--0--0------|
E|------------------------|
_________________________________________________________________________
Bass- 
e|-----------------------------------------------|
B|-----------------------------------------------|
G|-----------------------------------------------|
D|-----------------------------------------------|
A|-------------------------5---------------------|
E|--5--0--2--5---0--2--5------5--0--5---0--2-----|
_________________________________________________________________________

So come on..
e|----------------------------------------------|
B|----------------------------------------------|
G|--7-------------------------------------------|
D|--7--7----7/10---12---------------------------|
A|--5--7----7/10---12---------------------------|
E|-----5----5/8----10---------------------------|

e|------------------------|
B|------------------------|
G|------------------------|
D|------------------------|
A|--0--0--0--0--0--0------|
E|--5--5--5--5--5--5------|



e|----------------------------------------------|
B|----------------------------------------------|
G|--7-------------------------------------------|
D|--7--7----7/10---12---------------------------|
A|--5--7----7/10---12---------------------------|
E|-----5----5/8----10---------------------------|

Pre Chorus-

I appreciate your courtesy..
e|--------------------------------------------------------------|
B|--------------------------------------------------------------|
G|--4-4-4-4-----------------------------------------------------|
D|--4-4-4-4-3-3-3-3--7-7-7-7---4-4-4-4--------------------------|
A|--2-2-2-2-3-3-3-3--7-7-7-7---4-4-4-4--------------------------|
E|----------1-1-1-1--5-5-5-5---2-2-2-2--------------------------| x2
(On second time, don’t play those last chords)

e|----------------------------------------------------------|
B|----------------------------------------------------------|
G|-4-4-4-4-4-4-4-4------------------------------------------|
D|-4-4-4-4-4-4-4-4-3-3-3-3--5-------------------------------|
A|-2-2-2-2-2-2-2-2-3-3-3-3--5-------------------------------|
E|-----------------1-1-1-1--3-------------------------------|

Chorus-
e|-----------------------------------------------------|
B|-----------------------------------------------------|
G|--7-7------------------------------------------------|
D|--7-7-7--7-7-7---7/10---12--12-12-12-----------------|
A|--5-5-7--7-7-7---7/10---12--12-12-12-----------------|
E|------5--5-5-5---5/8----10--10-10-10-----------------|

Pre Verse/ Post Chorus-

e|-------------------------------------|
B|---------------4h5-------------------|
G|-------------------------------5~----|
D|-------------------------------------|
A|------0--0--0---------0--0--0--------|
E|------5--5--5---------5--5--5--------|

2nd Verse-

e|------------------------------|
B|------------------------------|
G|------------------------------|
D|------------------------------|
A|------0--0--0--0--0--0--------|
E|------5--5--5--5--5--5--------| etc.


e|----------------------------------------------|
B|----------------------------------------------|
G|--7-------------------------------------------|
D|--7--7----7/10---12---------------------------|
A|--5--7----7/10---12---------------------------|
E|-----5----5/8----10---------------------------|


Then pre-chorus

Then chorus

And im still working on the solo





| /  slide up
| \  slide down
| h  hammer-on
| p  pull-off
| ~  vibrato
| +  harmonic
| x  Mute note
===============================================================================

            
            
Suggest correction
Creating personal tab
Creating personal tab
You can edit any tab online and save it as your Personal.

You can edit, replace or remove any tab part or add personal notes – all changes will be seen only by you.

Personal tabs can be accessed anytime from any device, even offline.
Learn more »
comments
print report bad tab
2 comments total.
0 reply
The_awesome_dud 148 Jan 22, 2012 06:31 AM

The bass part is:

A|--------------5----------|
E|5-0-2-5-0-2-5---5-0-5-0-2|

And the second chord of the pre-chorus is F5, not F#5. The other one, after A5, is F#5 though.

0 reply
FinderofNemo 337 Sep 26, 2014 01:39 PM

Fixed, thanks.

guest
You may want to rate the tab now too:
select rating
Wanna post a correction for this tab? Suggest correction