Oops, an error
Loading. Please wait.

Do What You Want tab

version 1
version 1

Whole song

Interactive

by OK Go
37,044 views 18 this week
10 commentsread comments
1 2 3 4 5
x 22
add to favorites
×
Save as Personal and add changes to this tab that will be seen only by you. Learn more ›
×
You can save this tab as Personal to edit and correct it or add notes. All changes will be seen only by you. Learn more »
launch autoscroll
font size
0
reset
how to read this tab
guitar tuner
edit
Autoscroll
slow
fast
+/-
esc
set tempo
stop
OK Go-Do What You Want from Oh No
Tuning: Standard.

Intro/Verse

E|--------------------------------------------------------|
B|--------------------------------------------------------|
G|--------------------------------------------------------|
D|--------------------------------------------------------|
A|--2-2-2-0-------------------9-8-7--7-7--5-4-2--2-2-0-0--|
E|-----------------4-2--2-2-------------------------------|  x2

Then after that lick play:

E|-------------------------------------------------------------------------------------------|
B|-------------------------------------------------------------------------------------------|
G|---------------9------------------------------------------------------------------9-----9--|
D|---------------9------------(let ring)------------------------------------------9-----9----|
A|---------------7------------------------------------------------------------------7-----7--|
E|-------------------------------------------------------------------------------------------|

Play intro again x2

Chorus

E|----------------------------------------------------------------|
B|----------------------------------------------------------------|
G|---------------9------9--11-----11--9------9--11----9--9--11----|
D|---------------9------9--11-----11--9------9--11----9--9--11----|
A|---------------7------7---9-------9--7------7---9-----7--7---9--|
E|----------------------------------------------------------------|

E|----------------------------------------------------------------------------------|
B|----------------------------------------------------------------------------------|
G|----------------------------------------------------------------------------------|
D|-------------4----------------------4-4-4------------2---------------------2-2-2--|
A|----2-2-6------6-2-------6-6-6------------0-0-4----4-0------4-4-4-----------------|
E|----------------------------------------------------------------------------------| x2

E|---------------------------------|
B|---------------------------------|
G|---------------9-9-9-9-9-9---11--|
D|---------------9-9-9-9-9-9---11--|
A|---------------7-7-7-7-7-7----9--|
E|---------------------------------|

Intro/Verse x4

Chorus

Solo

Bridge

E|--------------------------------------------------------------------|
B|--------------------------------------------------------------------|
G|---------------------11--x-x---11----9--x-x---9---------------------|
D|----9--x-x---9----11--x-x---11----9--x-x---9----9--x-x---9----------|
A|----9--x-x---9------9--x-x----9-----7--x-x---7----9--x-x---9--------|
E|----7--x-x---7------------------------------------------7--x-x---7--| x4

Intro/verse till the end.


Full tab by Jen. Email at i_heart_kumar@yahoo.com
Suggest correction
Creating personal tab
Creating personal tab
You can edit any tab online and save it as your Personal.

You can edit, replace or remove any tab part or add personal notes – all changes will be seen only by you.

Personal tabs can be accessed anytime from any device, even offline.
Learn more »
comments
print report bad tab
10 comments total. Showing first comments.
+1 reply
cmoltedo 10 Sep 12, 2006 12:23 PM

This is accurate except that he plays chords instead of single notes. The bridge is wrong because he plays different barre chords not just regular power chords

+1 reply
Travelin' Man 10 Dec 28, 2006 07:22 PM

excellent tab, but i think the line of the chorus that you repeat is a little off. ill tell you how i play it sometime.

+3 reply
wind123 16 Feb 26, 2007 09:44 PM

sounds good but an easier way to play it is...

E|--------------------------------------------------------|
B|--------------------------------------------------------|
G|--------------------------------------------------------|
D|---------------------------4-3-2--2-2-------------------|
A|--2-2-2-0-------------------------------5-4-2--2-2-0-0--|
E|-----------------4-2--2-2-------------------------------|

guest
Wanna post a correction for this tab? Suggest correction