Oops, an error
Loading. Please wait.

Get Over It Tab

version 1
version 1

Whole song

Interactive

by OK Go
44,983 views 36 this week
7 commentsread comments
1 2 3 4 5
x 45
add to favorites
launch autoscroll
font size
0
reset
how to read this tab
guitar tuner
×
Best way to learn
"Get Over It"
Autoscroll
slow
fast
+/-
esc
set tempo
stop
[Intro]
e|-----------------------------------------------|
B|-----------------------------------------------|
G|--4-4--------------------222--333--------X4----|
D|--4-4-xx--4-4-3-2--2--xx 222--333--------------|
A|--2-2-xx--4-4-3-2--2--xx 000--111--------------|
E|------xx--2-2-1-0--0--xx ----------------------|

(After four times (after, "lotta fool scumbags") guitar 2 comes in playing the
same thing, after dropping from)

e|---------------|
B|---------------|
G|---------------|
D|---------------|
A|---------------|
E|--12\----------| (Play the main riff 2 more times then go into the)

[Chorus]
e|--------------------------------------------------------------|
B|--------------------------------------------------------------|
G|--7----7----------------------------------------------x2------|
D|--7----7----4-4-4-4-4----5----5----7-7-7-7-7-7----------------|
A|--5----5----4-4-4-4-4----5----5----7-7-7-7-7-7----------------|
E|------------2-2-2-2-2----3----3----5-5-5-5-5-5----------------|

e|---------------------------------------------------------------------------|
B|---------------------------------------------------------------------------|
G|--7----7------------------------------------------------4-4-4-4-4-4-4-4----|
D|--7----7--4-4-4-4----5----5----7-7-7-7--5-5-5-5-5-5-5-5-4-4-4-4-4-4-4-4----|
A|--5----5--4-4-4-4----5----5----7-7-7-7--5-5-5-5-5-5-5-5-2-2-2-2-2-2-2-2----|
E|----------2-2-2-2----3----3----5-5-5-5--3-3-3-3-3-3-3-3--------------------|

(Then guitar 1 plays the main verse riff and guitar 2 plays something that begins
on a 9 on the G string then goes up to a 10, but i cant quite work out. Then
repeat all that for the second for the second verse and chorus.
Straight after the second chorus guitar one plays the main riff again, and guitar
two plays this,)

e|-----------------------------------------------------|
B|--12(16 times)--14(8 times)--15(4times)--14(4 times)-| 
G|-----------------------------------------------------|
D|-----------------------------------------------------|
A|-----------------------------------------------------|
E|-----------------------------------------------------|

(Guitar 2)
e|-----------------------------------------------------|
B|-----------------------------------------------------|
G|------9-11~-------9-11~--11-9------------------------|
D|--9-9---------9-9-------------12-11------------------|
A|-----------------------------------------------------|
E|-----------------------------------------------------|

(No Guitar for the third verse and then back into chorus)

[Outro]
(in the last playing of the end of the chorus guitar 2 plays this)
e|------------------------------------------------------|
B|------------------------------------------------------|
G|--------------------9-9-9-11-11-11-9-9-9-11-----4-----|
D|--11-11-11-12-12-12-----------------------------4-----|
A|------------------------------------------------2-----|
E|------------------------------------------------------|



************************************

| x  Dead note
| \  Slide down
| ~  Vibrato

************************************
Suggest correction
comments
print report bad tab
7 comments total. Showing first comments.
-2 reply
djzman321 10 Nov 03, 2003 07:00 PM

nice tab wish there was lyrics though

-2 reply
repsak 51 May 03, 2004 08:00 PM

Sorry, the intro is completely wrong, the rest too! It goes like this and should be played shuffled:

x|-1---+---2---+---3---+---4---+---|-1---+---2---+---3---+---4---+---|

E|---------------------------------|---------------------------------|
B|---------------------------------|---------------------------------|
G|-4-------4-----------------------|---------------2-2-----3-3---4-4-|
D|-4-------4-------x-4-4---4---3---|-2-------2-----2-2-----3-3---4-4-|
A|-2-------2-------x-4-4---4---3---|-2-------2-----0-0-----1-1---2-2-|
E|-----------------x-2-2---2---1---|-0-------0-----------------------|

I don't want to tab the whole song but I can send sheet music by mail.

Kasper Dziurdz

+2 reply
Lydian_Mode 40 Jun 26, 2006 06:09 PM

^^^isnt that basically what he has?

guest
You may want to rate the tab now too:
select rating
Wanna post a correction for this tab? Suggest correction