Oops, an error
Loading. Please wait.
We have an official Get Over It tab made by UG professional guitarists. Check out the tab »
×
by OK Go
476 views 1 this week
no commentswrite comment
1 2 3 4 5
3 more votes to show rating
add to favorites
×
Save as Personal and add changes to this tab that will be seen only by you. Learn more ›
×
You can save this tab as Personal to edit and correct it or add notes. All changes will be seen only by you. Learn more »
launch autoscroll
font size
0
reset
guitar tuner
edit
Autoscroll
slow
fast
+/-
esc
set tempo
stop
Difficulty
----------------------------------------------------------------------------
			     Get Over it- Ok Go
-----------------------------------------------------------------------------

Tabbed By :getto
e-mail: n/A

Tuning: standard

G|---------------------------------------------------------------------------|
D|---------------------------------------------------------------------------|
A|-2--2-----------------0--0--1----2--2------------------0---0---1--2--2-----|
E|-------2--2---1--0----------------------2---2---1--0-----------------------|
repete. verse

G|-----------------------------------------------------------------------|
D|-----------------------------------------------------------------------|
A|--5--5--------------------------5---5----------------------------------|
E|----------2--2----3--3---5--5-----------2--2---3---3----5---5----------|
main chorus

G|---------------------------------------------------------|
D|---------------------------------------------------------|
A|--5--5---------------------------------------------------|
E|---------2---2---3--3---5---5-----33333333-----22222222--|
end of chorus, goes into verse.

G|--------------------------------------------|
D|--------------------------------------------|
A|--2--2------------------0---0--1---2---2----|
E|----------2--2---1--0-----------------------|
back into chorus. ect. repete. at end of song play chorus 8 times before ending.
listen to song, will help.

first tab, hope it is all right.

            
            
Suggest correction
Creating personal tab
Creating personal tab
You can edit any tab online and save it as your Personal.

You can edit, replace or remove any tab part or add personal notes – all changes will be seen only by you.

Personal tabs can be accessed anytime from any device, even offline.
Learn more »
Give kudos to tab author, rate the tab!
1 2 3 4 5
comments
print report bad tab
guest
Wanna post a correction for this tab? Suggest correction