Oops, an error
Loading. Please wait.

Maybe This Time bass

version 1
version 1

Whole song

Interactive

by OK Go
8,159 views 1 this week
2 commentsread comments
1 2 3 4 5
x 5
add to favorites
×
Save as Personal and add changes to this tab that will be seen only by you. Learn more ›
×
You can save this tab as Personal to edit and correct it or add notes. All changes will be seen only by you. Learn more »
launch autoscroll
font size
0
reset
guitar tuner
edit
Autoscroll
slow
fast
+/-
esc
set tempo
stop
Author
Intro/Main riff
G|----------------------------------|
D|--7-7-7---------------------------|
A|--------8-8-7-7-------------------|x7
E|----------------8-5-5-5-8-8-8-8-8-|

Pre-chorus 1
G|----------------------------------|
D|----------------------------------|
A|--------3-3-3-----------7-7-7-7-7-|
E|--1-1-1-------3-4-5-5-5-----------|

Main riff
G|----------------------------------|
D|--7-7-7---------------------------|
A|--------8-8-7-7-------------------|x3
E|----------------8-5-5-5-8-8-8-8-8-|

Pre-chorus 1
G|----------------------------------|
D|----------------------------------|
A|--------3-3-3-----------7-7-7-7-7-|
E|--1-1-1-------3-4-5-5-5-----------|

Pre-chorus 2
G|----------------------------------|
D|----------------------------------|
A|--------3-3-3---------------------|
E|--1-1-1-------3-4-5-5-5-5-5-5-5-5-|

Chorus pt.1
G|----------------------------------------------------------------|
D|----------------------------------------------------------------|
A|---------------------------------3-3-3-3-3-3-3-3-3-3-3-3-3-3-3-3|
E|-1-1-1-1-1-1-1-1-5-5-5-5-5-5-5-5--------------------------------|

Chorus pt.2
G|----------------------------------|
D|----------------------------------|
A|-----------------5-5-5-5-5-5-5-5--|
E|-1-1-1-1-1-1-1-1------------------|

Main riff
G|----------------------------------|
D|--7-7-7---------------------------|
A|--------8-8-7-7-------------------|x5
E|----------------8-5-5-5-8-8-8-8-8-|

Pre-chorus 1
G|----------------------------------|
D|----------------------------------|
A|--------3-3-3-----------7-7-7-7-7-|
E|--1-1-1-------3-4-5-5-5-----------|

Pre-chorus 2
G|----------------------------------|
D|----------------------------------|
A|--------3-3-3---------------------|
E|--1-1-1-------3-4-5-5-5-5-5-5-5-5-|

Chorus pt.1
G|----------------------------------------------------------------|
D|----------------------------------------------------------------|
A|---------------------------------3-3-3-3-3-3-3-3-3-3-3-3-3-3-3-3|x3
E|-1-1-1-1-1-1-1-1-5-5-5-5-5-5-5-5--------------------------------|

Chorus pt.2
G|----------------------------------|
D|----------------------------------|
A|-----------------5-5-5-5-5-5-5-5--|
E|-1-1-1-1-1-1-1-1------------------|

Main riff
G|----------------------------------|
D|--7-7-7---------------------------|
A|--------8-8-7-7-------------------|
E|----------------8-5-5-5-8-8-8-8-8-|

Pre-chorus 1
G|----------------------------------|
D|----------------------------------|
A|--------3-3-3-----------7-7-7-7-7-|
E|--1-1-1-------3-4-5-5-5-----------|

Main riff
G|----------------------------------|
D|--7-7-7---------------------------|
A|--------8-8-7-7-------------------|
E|----------------8-5-5-5-8-8-8-8-8-|

Pre-chorus 1
G|----------------------------------|
D|----------------------------------|
A|--------3-3-3-----------7-7-7-7-7-|
E|--1-1-1-------3-4-5-5-5-----------|

Pre-chorus 2
G|----------------------------------|
D|----------------------------------|
A|--------3-3-3---------------------|
E|--1-1-1-------3-4-5-5-5-5-5-5-5-5-|

Chorus pt.1
G|----------------------------------------------------------------|
D|----------------------------------------------------------------|
A|---------------------------------3-3-3-3-3-3-3-3-3-3-3-3-3-3-3-3|x3
E|-1-1-1-1-1-1-1-1-5-5-5-5-5-5-5-5--------------------------------|

Chorus pt.2
G|----------------------------------|
D|----------------------------------|
A|-----------------5-5-5-5-5-5-5-5--|
E|-1-1-1-1-1-1-1-1------------------|

Intro/main riff x7
Prechorus x1
Intro/main riff x3
Prechorus 1 x1
Prechorus 2 x1
chorus pt.1 x1
chorus pt.2 x1
Intro/main riff x5
Prechorus 1 x1
Prechorus 2 x1
chorus pt.1 x3
chorus pt.2 x1
Intro/main riff x1
Prechorus 1 x1
Intro/main riff x1
Prechorus 1 x1
Prechorus 2 x1
chorus pt.1 x3
chorus pt.2 x1


Having spent your entire life 
exactly where you are tonight 
in the valley between intent and deed, 
You must have mastered this 
fragile art of a good excuse, 
the little things that get you to believe.
That get you to believe.

So listen, I'm not trying to prove 
anything 
at all here, 
but don't you think that maybe, 
this time, 
you were wrong?

You've spent your entire life quick-tongued and always right.
Hasn't being right just let you down?
Right just let you down.

So listen, I'm not trying to say 
anything 
at all here.
There isn't much left, 
anyway, 
that hasn't been said.
But don't you think that possibly, 
this time, 
it's different?
Don't you think that maybe, 
this time, 
you were wrong?
Suggest correction
Creating personal tab
Creating personal tab
You can edit any tab online and save it as your Personal.

You can edit, replace or remove any tab part or add personal notes – all changes will be seen only by you.

Personal tabs can be accessed anytime from any device, even offline.
Learn more »
comments
print report bad tab
2 comments total.
+1 reply
rossall69 72 Jun 23, 2007 03:27 AM

This tab blew my tits off!! 110% accurate, well done man, you must be in one awsome band dude! Rossall

+3 reply
Noble Cause 82 Jan 31, 2008 12:43 PM

On Chorus going from 1111(E)-33333(A)-3455555(E)-- it goes to 7 on A not 3 on A. The notes sound very alike so it would
be hard to recognize this but i have noticed it. Good job!

guest
You may want to rate the tab now too:
select rating
Wanna post a correction for this tab? Suggest correction