Oops, an error
Loading. Please wait.

Needing Getting Bass Tab

5,262 views 39 this week
no commentswrite comment
1 2 3 4 5
x 5
add to favorites
launch autoscroll
font size
0
reset
guitar tuner
Autoscroll
slow
fast
+/-
esc
set tempo
stop
Help us to improve Ultimate-Guitar.com Take our survey!
×
Author
Needing/Getting

 |----Guitar Intro---|

w/Distortion ON

[Verse]
G|-----------------------------------------------|
D|-----------------------------------------------|
A|-5-55-5-5-0--4-44-4-4-0--2-22-2-2-0-----------2|
E|-------------------------------------3-33-3-5--|

G|-----------------------------------------------|
D|-----------------------------------------------|
A|-5-55-5-5-2--0-00-0-5-5--5-55-5-2-0---------5-5|
E|-------------------------------------3-33-3----|

[Chorus]
G|-----------------------------------------------|
D|------------------4-2-0-------0-2-4--5-55-5-4-2|
A|-5-55-5-5-0--1-11--------2-22------------------|
E|-----------------------------------------------|

G|-----------------------------------|
D|------------------------------3-3-3|
A|-5-55-5-5-2--0-00-0-2-5------------|
E|-------------------------3-33------|

[Pre Verse]
G|-----------------------------------------------|
D|-----------------------------------------------|
A|-5-55-5-5-5--5-55-5-5-5--5-55-5-5-5--5-55-5-5-0|      x2
E|-----------------------------------------------|

[Verse]
G|-----------------------------------------------|
D|-----------------------------------------------|
A|-5-55-5-5-0--4-44-4-4-0--2-22-2-2-0-----------2|
E|-------------------------------------3-33-3-5--|

G|-----------------------------------------------|
D|-----------------------------------------------|
A|-5-55-5-5-2--0-00-0-5-5--5-55-5-2-0---------5-5|
E|-------------------------------------3-33-3----|

[Chorus]
G|-----------------------------------------------|
D|------------------4-2-0-------0-2-4--5-55-5-4-2|
A|-5-55-5-5-0--1-11--------2-22------------------|
E|-----------------------------------------------|

G|-----------------------------------|
D|------------------------------3-3-3|
A|-5-55-5-5-2--0-00-0-2-5------------|
E|-------------------------3-33------|

[Pre Verse]
G|-----------------------------------------------|
D|-----------------------------------------------|
A|-5-55-5-5-5--5-55-5-5-5--5-55-5-5-5--5-55-5-5-0|
E|-----------------------------------------------|

G|-------------------------------------------11--|
D|---------------------------------------------12|
A|-5-55-5-5-5--5-55-5-5-5--5-55-5-5-5--5-55-5----|
E|-----------------------------------------------|

[Bridge]
G|------------------------------------------------------------------------|
D|------------------------------------------------------------------------|
A|-2-22-2-2-5--------------5-55-5-5-2--1-11-1-1-0-------------------------|
E|-------------3-33-3-3-5--------------------------0-00-0-0-0--0-00-0-0-2-|

G|------------------------------------------------------------------------|
D|------------------------------------------------------------------------|
A|-------------------------5-55-5-5-5--5-55-5-5-2--1-11-1-0----0-00-0-0-0-|
E|-3-33-3-3-3--3-33-3-3-5-----------------------------------3-------------|

 |----Vocal Interlude---|

[Chorus]
G|-----------------------------------------------|
D|------------------4-2-0-------0-2-4--5-55-5-4-2|
A|-5-55-5-5-0--1-11--------2-22------------------|
E|-----------------------------------------------|

G|-----------------------------------|
D|------------------------------3-3-3|
A|-5-55-5-5-2--0-00-0-2-5------------|
E|-------------------------3-33------|

[Pre Verse]
G|-----------------------------------------------|
D|-----------------------------------------------|
A|-5-55-5-5-5--5-55-5-5-5--5-55-5-5-5--5-55-5-5-0|      x2
E|-----------------------------------------------|


G|---------|
D|---------|
A|-5-55-5\0|
E|---------|

 |----Feedback---|

G|----------|
D|----------|
A|-5-55-5-5-|
E|----------|

 |----Feedback---|

w/Distortion OFF

[Outro]
G|---------------------------------------------------------------------|
D|-7-----------------------7------------------------------------2---2-2|
A|--5---5-5---5-0---0-0-----5---5-5---5-0---0-0---0--------------------| x3
E|--------------------------------------------------3---3-3---3--------|

G|---------------|
D|-7-------------|
A|--5-(ring out)-|
E|---------------|

Please rate :) Thank-you!
************************************

| \  Slide down

************************************
Suggest correction
comments
print report bad tab
guest
You may want to rate the tab now too:
select rating
Wanna post a correction for this tab? Suggest correction