Oops, an error
Loading. Please wait.

Television Television tab

by OK Go
2,807 views 3 this week
2 commentsread comments
1 2 3 4 5
x 3
add to favorites
×
Save as Personal and add changes to this tab that will be seen only by you. Learn more ›
×
You can save this tab as Personal to edit and correct it or add notes. All changes will be seen only by you. Learn more »
launch autoscroll
font size
0
reset
how to read this tab
guitar tuner
edit
Autoscroll
slow
fast
+/-
esc
set tempo
stop
Author
Title   : Television Television
Artist  : OK Go
Album   : Oh No (2005)
Tuning  : Drop D (D,A,D,G,B,E)
Tabbed by : Atsuzen
E-mail  : twentythreesums@hotmail.com


Intro/ Verse

|--------------------------------------------------------------|
|--------------------------------------------------------------|
|--------------------------------------------------------------|
|--------------------------------------------------------------|
|--------------------------------------------------------------|
|-0-0---0-4-4---4-5-5---5-4-4---4-5-5---5-6-6---6-7--7-7--2b3--|


Pre-chorus

Guitar I

|--------------------------------------------------------------|
|-------------/10---------------------------------/10----------|
|------------------7--7-7-7--7--/11--------------------10~--9~-|
|-9--9-9-9--9------------------------9--9-9-9--9---------------|
|--------------------------------------------------------------|
|--------------------------------------------------------------|
     .                .                 .

Guitar II

|-2----5----2----8-----7----|
|-3----7----3----10----9----|
|-4----7----4----10----9----|
|-4----7----4----10----9----|
|-2----5----2----8-----7----|
|---------------------------|


Chorus

Guitar I

|-----------------------------------------------------------|
|---10-10-10-13b15r13-------10-10-10-13b15r13-------10------|
|---------------------10~\--------------------10-12----11---|
|-----------------------------------------------------------|
|-----------------------------------------------------------|
|-----------------------------------------------------------|

Guitar II

|--------------------------------------------------------------|
|--------------------------------------------------------------|
|--------------------------------------------------------------|
|--------------------------------------------------------------|
|--------------------------------------------------------------|
|-0-0---0-4-4---4-5-5---5-4-4---4-5-5---5-6-6---6-7--7-7--2b3--|


Repeat verse.

Repeat pre-chorus.

Repeat chorus.


Solo

Guitar I

|---------------------------------------|
|-10-10-10----------10--13\-------------|
|----------12--11~-------------12-------|
|---------------------------11----11\9--|
|---------------------------------------|
|---------------------------------------|

|------------------------10--9b10r9-----|
|-10-10-10------------10------------10\-|
|----------12-11~--10-------------------|
|---------------------------------------|
|---------------------------------------|
|---------------------------------------|

Guitar II

|-------------------------------------------------------|
|-------------------------------------------------------|
|-------------------------------------------------------|
|-------------------------------------------------------|
|-------------------------------------------------------|
|-4--4--4--4--0-0--0-0-0---0-3--3--3--3--7-7--7-7-7--7--|

|----------------------------------------------------|
|----------------------------------------------------|
|----------------------------------------------------|
|----------------------------------------------------|
|----------------------------------------------------|
|-4--4--4--4--0-0--0-0-0---0-3--3--3--3--2--2--2--2--|

Then ...

|--------------------------------------------------------------|
|--------------------------------------------------------------|
|--------------------------------------------------------------|
|--------------------------------------------------------------| x3
|--------------------------------------------------------------|
|-0-0---0-4-4---4-5-5---5-4-4---4-5-5---5-6-6---6-7--7-7--2b3--|

|--------------------|
|--------------------|
|--------------------|
|--------------------|
|--------------------|
|-0-0---0-0-0---0-0--|

Repeat chorus.

Final solo

Guitar I

|----------------------------------------13b15r13------|
|-10-10-10-13b15-13b15-13b15-13b15-15-15---------------|
|-------------------------------------------------10~--|
|------------------------------------------------------|
|------------------------------------------------------|
|------------------------------------------------------|

|---------------------------------------------------------------|
|----13---------13----13-----------------13b15-13b15-13b15------|
|-10----10b10.5----11----12-12----9---10-------------------10~\-|
|-------------------------------7---8---------------------------|
|---------------------------------------------------------------|
|---------------------------------------------------------------|

Guitar II

|--------------------------------------------------------------|
|--------------------------------------------------------------|
|--------------------------------------------------------------|
|--------------------------------------------------------------|
|--------------------------------------------------------------|
|-0-0---0-4-4---4-5-5---5-4-4---4-5-5---5-6-6---6-7--7-7--2b3--|

End On

|------|
|------|
|------|
|------|
|------|
|-0-0--|
Suggest correction
Creating personal tab
Creating personal tab
You can edit any tab online and save it as your Personal.

You can edit, replace or remove any tab part or add personal notes – all changes will be seen only by you.

Personal tabs can be accessed anytime from any device, even offline.
Learn more »
Give kudos to tab author, rate the tab!
1 2 3 4 5
comments
print report bad tab
2 comments total.
0 reply
oneshotnothing 1,164 Apr 16, 2007 02:09 PM

i think it should go like this:

|-0-0---0-4-4---4-5-5---5-3-3---3-5-5---5-6-6---6-7--7-7--2b3--|
* * *
(instead of 4's)

and also, the third chord in the prechorus should be a G, not a Bm.

0 reply
oneshotnothing 1,164 Apr 16, 2007 02:09 PM

those stars are supposed to be under the 3's...

guest
You may want to rate the tab now too:
select rating
Wanna post a correction for this tab? Suggest correction