Oops, an error
Loading. Please wait.

Theres A Fire Tab

version 1
version 1

Solo

  • A different part is tabbed out than the other tab to this song.

Whole song

7 views 1 this week
no commentswrite comment
1 2 3 4 5
3 more votes to show rating
add to favorites
launch autoscroll
font size
0
reset
how to read this tab
guitar tuner
Autoscroll
slow
fast
+/-
esc
set tempo
stop
Help us to improve Ultimate-Guitar.com Take our survey!
×
Author
Difficulty
novice
About this tab version
A different part is tabbed out than the other tab to this song. Was this info helpful? Yes No
OK Go - There's A Fire

This is a tab for the main riff (not the bass) to the song.

e|------------------------------|------------------------------|
B|--12p9-9-9--9-9-7h9-9-9--7----|------------------------------|
G|---------------------------9--|--8h9-9-9--9-9-9/11-11-11-11--|
D|------------------------------|------------------------------|
A|------------------------------|------------------------------|
E|------------------------------|------------------------------|

e|------------------------------|------------------------------|
B|--12p9-9-9--9-9-7h9-9-9--7----|------------------------------|
G|---------------------------9--|--8h9-9-9--9-9-9p8-8-8--------|
D|------------------------------|------------------------------|
A|------------------------------|------------------------------|
E|------------------------------|------------------------------|


************************************

| p    Pull-off
| /    Slide Up
| h    Hammer-on

************************************
Suggest correction
Give kudos to tab author, rate the tab!
1 2 3 4 5
comments
print report bad tab
guest
You may want to rate the tab now too:
select rating
Wanna post a correction for this tab? Suggest correction