Oops, an error
Loading. Please wait.

White Wine Spritzer Bass Tab

4 views 3 this week
no commentswrite comment
1 2 3 4 5
3 more votes to show rating
add to favorites
launch autoscroll
font size
0
reset
guitar tuner
Autoscroll
slow
fast
+/-
esc
set tempo
stop
Help us to improve Ultimate-Guitar.com Take our survey!
×
Author
Difficulty
Tuning
novice
D A D G B E
                             OKILLY DOKILLY - WHITE WINE SPRITZER

Tabbed by: Rottney (reconssuck)
E-mail: reconssuck@hotmail.de

Artist: Okilly Dokilly
Song: White Wine Spritzer
Album: Howdilly Doodilly (2016)



(bass is silent during intro)


[Verse] x4

G|--------------------|----------------------|
D|--------------------|----------------------|
A|--------------------|----------------------|
D|-2-2-2--5-5-5--4-4--|-7-7-7--10-10-10--9-9-|


[Breakdown] x4 

G|-----------------|-------------------|
D|-----------------|-------------------|
A|-----------------|-------------------|
D|-2-2-2--2-2-2--2-|-2--2-2-2--2-2-2---|

(let last note ring out in the fourth time)


[Verse] x4

G|--------------------|----------------------|
D|--------------------|----------------------|
A|--------------------|----------------------|
D|-2-2-2--5-5-5--4-4--|-7-7-7--10-10-10--9-9-|


[Breakdown] x4 

G|-----------------|-------------------|
D|-----------------|-------------------|
A|-----------------|-------------------|
D|-2-2-2--2-2-2--2-|-2--2-2-2--2-2-2---|


[Bridge] x4

G|-------------|-------------------|
D|-------------|-------------------|
A|-------------|-------------------|
D|-2-2--12--10-|-5-5-5--7-7-7-7-7--|

[Verse] x8

G|--------------------|----------------------|
D|--------------------|----------------------|
A|--------------------|----------------------|
D|-2-2-2--5-5-5--4-4--|-7-7-7--10-10-10--9-9-|


[Breakdown] x4 

G|-----------------|-------------------|
D|-----------------|-------------------|
A|-----------------|-------------------|
D|-2-2-2--2-2-2--2-|-2--2-2-2--2-2-2---|

(let last note ring out in the fourth time again)




That's all
Enjoy and Rate
Suggest correction
Give kudos to tab author, rate the tab!
1 2 3 4 5
comments
print report bad tab
guest
You may want to rate the tab now too:
select rating
Wanna post a correction for this tab? Suggest correction