Oops, an error
Loading. Please wait.

White Wine Spritzer Tab

100 views 1 this week
no commentswrite comment
1 2 3 4 5
2 more votes to show rating
add to favorites
launch autoscroll
font size
0
reset
how to read this tab
guitar tuner
Autoscroll
slow
fast
+/-
esc
set tempo
stop
Help us to improve Ultimate-Guitar.com Take our survey!
×
Author
Difficulty
Tuning
novice
D A D G B E
Okilly Dokilly - White Wine Spritzer
Tuning: Drop D

[Intro/Verse/Outro]
[Note] Let the notes ring out
e|--------------|---------------------|
B|-------8-8-7--|-----------13--13-12-|
G|-9-9-9--9-----|-14-14-14----14------|
D|--------------|---------------------|
A|--------------|---------------------|
D|--------------|---------------------|

[Chorus]
e|-----------------|--------------------|
B|-----------------|--------------------|
G|-----------------|--------------------|
D|-2-2-2-5-5-5-4-4-|-7-7-7-10-10-10-9-9-|
A|-2-2-2-5-5-5-4-4-|-7-7-7-10-10-10-9-9-|
E|-2-2-2-5-5-5-4-4-|-7-7-7-10-10-10-9-9-|

[Breakdown]
[Note] Chords are palm-muted. (You could add a squealie at the end of the 2nd measure)
e|-----------------------|-----------------------|
B|-----------------------|-----------------------|
G|-----------------------|-----------------------|
D|-2-2-2---2-2-2---2---2-|-2-2-2---2-2-2---------|
A|-2-2-2---2-2-2---2---2-|-2-2-2---2-2-2---------|
E|-2-2-2---2-2-2---2---2-|-2-2-2---2-2-2---------|

[Bridge]
e|-----------------------------------|
B|-----------------------------------|
G|-----------------------------------|
D|-2-2-x\-12-10--5-5-5\7-7-----------|
A|-2-2-x\-12-10--5-5-5\7-7-----------|
E|-2-2-x\-12-10--5-5-5\7-7-----------|


************************************

| \  Slide down
| x  Dead note

************************************
Suggest correction
Give kudos to tab author, rate the tab!
1 2 3 4 5
comments
print report bad tab
guest
You may want to rate the tab now too:
select rating
Wanna post a correction for this tab? Suggest correction