Oops, an error
Loading. Please wait.

Starry Stairs tab

830 views 3 this week
no commentswrite comment
1 2 3 4 5
1 last vote to show rating
add to favorites
×
Save as Personal and add changes to this tab that will be seen only by you. Learn more ›
×
You can save this tab as Personal to edit and correct it or add notes. All changes will be seen only by you. Learn more »
launch autoscroll
font size
0
reset
how to read this tab
guitar tuner
edit
Autoscroll
slow
fast
+/-
esc
set tempo
stop
Capo on 2nd fret (or not)

This is typically how I play it finger-picked on a classical. You'll have to listen to 
the song to pick out the repetitions and variations.

***There's a simpler version of the verse and chorus posted after the solo, which will 
get you through the basics of the song much more quickly.***

Intro/Verse

e|-2---2--2------------------------2-2-2----------------------------|
B|-3---3--3-3-0--------------------3-3-3-0-0-0----0---0h3--0--------|
G|-2--h3--3-2-0---4-4-2-2-2---4--4-4-4-4-4-4-4-4--0---0----0--------|
D|-0---0--0-0-----4-4-4-4-4---4--4-4-4-4-2-2-2-2-----------------0--|
A|---------------0----4-4-4---0--0---0---0-0-0---2---2--------0h2---|
E|--------------------2-2-2----------------------3---3--------------|

e|-------------------2---2-h3-2------------------------|
B|-------------------3---3------3-2--3-2-3-2----0-h2---|
G|-------------------2---2--------2--2-2-2-2----0------|
D|--4-4-0-4-0---0--0---0----------2--4-2-4-2----0------|
A|2-2-2-2-2-2-2----0--------------0--0---0------2------|
E|0---------------------------------------------3------|

Chorus

e|---------------------------2-------------------------|
B|-2--x-x-3----2-2-x-2-------3----0-3------------------|
G|-2--x-x-2--x-0-0-x-2-------2--------4-2--------------|
D|-2--x-x-4--x-2-2-x-2---0-0-0-------------4--0--2h4p2-|
A|-0--x-x-0--x-0-0-x-0---0---0-------------------------|
E|-----------------------------------------------------|

e|---------------------------------|
B|-2--3-2-3--0h2-------------------|
G|-2--2-2-2--0---------------------|
D|-2--4-2-4--0---------0-2/4\2-----|
A|-0--0-0-0--2---0-0h2---------2/5-|
E|-----------3---------------------|

Solo (My interpretation for playing solo acoustic. It closely mimics the timing in the 
original song)

e|-2---3--3/5-----------------2--3-2---------------------|
B|-3---3--3/5---2---3--3/5----3--3-3--2--3-2---0h3---0h3-|
G|-2------------2---2--2------2--2-2--2--2-2---0---------|
D|-0------------2-------------0-------2--2-2---0---------|
A|-0------------0---------------------0--------2---------|
E|---------------------------------------------3---------|

e|-3---0--2h3-0-2------0h2-------------------------|
B|-0------------3---3------3--2--3-2-3-2----0-h2---|
G|-0------------2-------------2--2-2-2-2----0------|
D|-2------------0-------------2--4-2-4-2----0------|
A|-2--------------------------0--0---0------2------|
E|-0----------------------------------------3------|


***And here's the simple version that has just the fingerings you'll progressively make. Easy.***

Verse

e|-2-2-2---------2-0---0---------------------|
B|-3-3-3---------3-0---3---------------------|
G|-2-3-2--4-2-4--4-4---0---------------------|
D|-0-0-0--4-4-4--4-2---0--4-4-4-0-4-0---0----|
A|--------2-4-2--0-0---2--2-2-2-2-2-2-2------|
E|--------2-2-2--------3---------------------|

e|-2-3-2-----------------|
B|-3-3-3--2-3-2-3-2--0h2-|
G|-2-2-2--2-2-2-2-2--0---|
D|-0-0-0--2-4-2-4-2--0---|
A|--------0-0-0-0----2---|
E|-------------------3---|

Chorus

e|----------2-----------------------------|
B|-2-3-2-2--3-0-3-----------------2-3-2-3-|
G|-2-2-0-2--2-----4-2-------------2-2-2-2-|
D|-2-4-2-2--0---------4-0--2h4p2--2-4-2-4-|
A|-0-0-0-0--0---------------------0-0-0-0-|
E|----------------------------------------|

e|---------------------|
B|-0h2-----------------|
G|-0-------------------|
D|-0-------0-2/4\2-----|
A|-2---0-2---------2/5-|
E|-3-------------------|

            
            
Suggest correction
Creating personal tab
Creating personal tab
You can edit any tab online and save it as your Personal.

You can edit, replace or remove any tab part or add personal notes – all changes will be seen only by you.

Personal tabs can be accessed anytime from any device, even offline.
Learn more »
Give kudos to tab author, rate the tab!
1 2 3 4 5
comments
print report bad tab
guest
You may want to rate the tab now too:
select rating
Wanna post a correction for this tab? Suggest correction