Oops, an error
Loading. Please wait.

Was Wollen Wir Trinken tab

51,186 views 138 this week
1 commentread comment
1 2 3 4 5
x 11
add to favorites
×
Save as Personal and add changes to this tab that will be seen only by you. Learn more ›
×
You can save this tab as Personal to edit and correct it or add notes. All changes will be seen only by you. Learn more »
launch autoscroll
font size
0
reset
how to read this tab
guitar tuner
edit
Autoscroll
slow
fast
+/-
esc
set tempo
stop
Author
Difficulty
[Intro]

e|-------------------------------------------------------------|
B|-3-3-0-1---------3-3-1-0---3-3-0-1-----0---------------------|
G|---------2---0-2-------------------2-----0-2-----------------|
D|-------------------------------------------------------------|         
A|-------------------------------------------------------------|
E|-------------------------------------------------------------|
        
e|-------0-0-1---0---------------------------------------------|
B|---1-3-------3-----3-3-0-1-------3-3-1-0---3-3-0-1-----0-----|
G|-2-------------------------2-0-2-------------------2-----0-2-|
D|-------------------------------------------------------------|         
A|-------------------------------------------------------------|
E|-------------------------------------------------------------|


[Verse 1]

               Am                        G
Was wollen wir trinken, dieser Kampf war lang,
               F            G      Am
was wollen wir trinken, auf diesen Sieg.         
         C           F    C
am Roten Platz steht Corvalan,
           Am                     G 
auf unsere Sache stößt er mit uns an,
                F    G    Am
wir trinken auf Luis Corvalan.                  


[Verse 2]

                Am                       G
Dann wieder die Arbeit, braucht uns alle Mann,
                F       G        Am
dann wieder die Arbeit, die sich lohnt.          
            C          F         C
sie fordert Kraft, sie macht uns stark,
           Am                    G
für unsere Sache dass sie weiter geht,
           F   G   Am
für unsere Solidarität.                          


[Bridge]

e|-------------------------------------------------------------|
B|-3-3-0-1---------3-3-1-0---3-3-0-1-----0---------------------|
G|---------2---0-2-------------------2-----0-2-----------------|
D|-------------------------------------------------------------|         
A|-------------------------------------------------------------|
E|-------------------------------------------------------------|
        
e|-------0-0-1---0---------------------------------------------|
B|---1-3-------3-----3-3-0-1-------3-3-1-0---3-3-0-1-----0-----|
G|-2-------------------------2-0-2-------------------2-----0-2-|
D|-------------------------------------------------------------|         
A|-------------------------------------------------------------|
E|-------------------------------------------------------------|


[Verse 3]

              Am                       G
So wollen wir kämpfen für den nächsten Sieg,
              F           G      Am
so wollen wir kämpfen für unsere Welt.           
           C       F         C
Auf großen Plätzen singt das Volk,
            Am                    G
von unserer Sache die nimmt ihren Lauf,
          F         G      Am
die Revolution hält keiner auf.                 


[Outro]

e|-------------------------------------------------------------|
B|-3-3-0-1---------3-3-1-0---3-3-0-1-----0---------------------|
G|---------2---0-2-------------------2-----0-2-----------------|
D|-------------------------------------------------------------|         
A|-------------------------------------------------------------|
E|-------------------------------------------------------------|
        
e|-------0-0-1---0---------------------------------------------|
B|---1-3-------3-----3-3-0-1-------3-3-1-0---3-3-0-1-----0-----|
G|-2-------------------------2-0-2-------------------2-----0-2-|
D|-------------------------------------------------------------|         
A|-------------------------------------------------------------|
E|-------------------------------------------------------------|
Suggest correction
Creating personal tab
Creating personal tab
You can edit any tab online and save it as your Personal.

You can edit, replace or remove any tab part or add personal notes – all changes will be seen only by you.

Personal tabs can be accessed anytime from any device, even offline.
Learn more »
comments
print report bad tab
1 comment total.
0 reply
coolbro1539 10 Apr 21, 2013 11:04 AM

Perfect tab, but intro some wrong in timing i think

guest
You may want to rate the tab now too:
select rating
Wanna post a correction for this tab? Suggest correction