Oops, an error
Loading. Please wait.

Karandorie bass

73 views 1 this week
no commentswrite comment
1 2 3 4 5
3 more votes to show rating
add to favorites
×
Save as Personal and add changes to this tab that will be seen only by you. Learn more ›
×
You can save this tab as Personal to edit and correct it or add notes. All changes will be seen only by you. Learn more »
launch autoscroll
font size
0
reset
guitar tuner
edit
Autoscroll
slow
fast
+/-
esc
set tempo
stop
Intro 0:05
F#|-------------------------------------------------------------------------------------------------|
C#|-------------------------2-2---2-----2-----------------------------------------------4---4-------|
G#|-2-2---2---2-5---0---------------2-------2-------------------3-------3---4-----4-2-4-------------|
C#|---------4-----------0-------------2---------2---5-5---5-4-5-----5-------------------------------|
    1 + 2 + 3 + 1 + 2 + 3 + 1 + 2 + 3 + 1 + 2 + 3 + 1 + 2 + 3 + 1 + 2 + 3 + 1 + 2 + 3 + 1 + 2 + 3 + 

Verse 0:14
F#|-------------------------------------------------------------------------------------------------|
C#|---------------------------------------------------------6-------------------------------4-------|
G#|-2-------------------2---0-------------------0---------------------------------------2-4---4-----|
C#|-------------------------------------------------6-----------5-------5---4-----4-6-4---------4-4-|
    1 + 2 + 3 + 1 + 2 + 3 + 1 + 2 + 3 + 1 + 2 + 3 + 1 + 2 + 3 + 1 + 2 + 3 + 1 + 2 + 3 + 1 + 2 + 3 + 

F#|-------------------------------------------------------------------------------------------------|
C#|-------------------------2----------/6-------------------------------------------------------2-4-|
G#|-2-------2---2---4---5-------------------2-------------------0-------0---2-------2-0-2-5-4-5-----|
C#|-----------4---------------------2-----------2---5-------5---------------------------------------|
    1 + 2 + 3 + 1 + 2 + 3 + 1 + 2 + 3 + 1 + 2 + 3 + 1 + 2 + 3 + 1 + 2 + 3 + 1 + 2 + 3 + 1 + 2 + 3 + 

Chorus 0:31
F#|-------------------------------------------------------------------------------------------------|
C#|---------------------5---------------3-----------------------4-----------------------2-4-2-------|
G#|-------------------------4-----2-4-2-----4-------------4---4-----4-------2-------2---------5-4-2-|
C#|-5-5-----5-5-5-5-----------------------------6---4-------4-----------4---------4---4-------------|
    1 + 2 + 3 + 1 + 2 + 3 + 1 + 2 + 3 + 1 + 2 + 3 + 1 + 2 + 3 + 1 + 2 + 3 + 1 + 2 + 3 + 1 + 2 + 3 + 

F#|-----------------------------------------3-3-------------4-4-----5-5-----------------------------|
C#|-------------------4-6-4-------7-6-7---------3-3---------------------5-5-----4---4-2-4-----------|
G#|-------------------------0-----------1-1---------2-2-2-2-----3-3---------------4-----------------|
C#|---------5-5-6-----------------------------------------------------------4-4-------------4-------|
    1 + 2 + 3 + 1 + 2 + 3 + 1 + 2 + 3 + 1 + 2 + 3 + 1 + 2 + 3 + 1 + 2 + 3 + 1 + 2 + 3 + 1 + 2 + 3 + 

0:49
F#|-------------------------------------------------------------------------------------------------|
C#|---------------------------------7-9-7-------------------6-------5-------------------4-2---------|
G#|-2-----------------------0-------------9-7-4-------------------------5---------4---4-----4-2-----|
C#|---------------------4-----------------------4-4-6-----------5-----------4-------4-----------4---|
    1 + 2 + 3 + 1 + 2 + 3 + 1 + 2 + 3 + 1 + 2 + 3 + 1 + 2 + 3 + 1 + 2 + 3 + 1 + 2 + 3 + 1 + 2 + 3 + 

F#|-------------------------------------------------------------------------------------------------|
C#|---------------------------------2---2---2-------------------------------------------2-----2-4-2-|
G#|-2-------2---2---4---5---------2---2-------2-----------------0-----------2---2---2-4---2-4-------|
C#|-----------4-------------2-------------------2-2-5-------------------------4---4-----------------|
    1 + 2 + 3 + 1 + 2 + 3 + 1 + 2 + 3 + 1 + 2 + 3 + 1 + 2 + 3 + 1 + 2 + 3 + 1 + 2 + 3 + 1 + 2 + 3 + 

Interlude 1:06
F#|-------------------------------------------------------------------------------------------------|
C#|-------------------------2-2---2-----2-----------------------------------------------4---4-------|
G#|-2-----2---2-5---0---------------2-------2-------------------3-------3---4-----4-2-4---------5-4-|
C#|---------4-----------0-------------2---------2---5-----5-4-5-----5-------------------------------|
    1 + 2 + 3 + 1 + 2 + 3 + 1 + 2 + 3 + 1 + 2 + 3 + 1 + 2 + 3 + 1 + 2 + 3 + 1 + 2 + 3 + 1 + 2 + 3 + 

F#|-------------------------------------------------------------------------------------------------|
C#|-------------------------2-2---2-----2-----------------------------------------------4---4-------|
G#|-2-----2---2-5---0---------------2-------2-------------------3-------3-3-4-----4-2-4---------5-4-|
C#|---------4-----------0-------------2---------2---5-----5-4-5-----5-------------------------------|
    1 + 2 + 3 + 1 + 2 + 3 + 1 + 2 + 3 + 1 + 2 + 3 + 1 + 2 + 3 + 1 + 2 + 3 + 1 + 2 + 3 + 1 + 2 + 3 + 

Rest

Verse 1:26
F#|-------------------------------------------------------------------------------------------------|
C#|-----------------------------------------------------------------------------------------4-------|
G#|-2-------------------2---r-----------------------------------------------------------2-4---4-----|
C#|-------------------------------------------------------------------------------4-6-4---------4-4-|
    1 + 2 + 3 + 1 + 2 + 3 + 1 + 2 + 3 + 1 + 2 + 3 + 1 + 2 + 3 + 1 + 2 + 3 + 1 + 2 + 3 + 1 + 2 + 3 + 

F#|-------------------------------------------------------------------------------------------------|
C#|-------------------------2----------/6-------------------------------------------------------2-4-|
G#|-2-------2---2---4---5-------------------2-------------------0-------0---2-------2-0-2-5-4-5-----|
C#|-----------4---------------------2-----------2---5-------5---------------------------------------|
    1 + 2 + 3 + 1 + 2 + 3 + 1 + 2 + 3 + 1 + 2 + 3 + 1 + 2 + 3 + 1 + 2 + 3 + 1 + 2 + 3 + 1 + 2 + 3 + 

Chorus 1:43
F#|-------------------------------------------------------------------------------------------------|
C#|-------------------------------------3-----------------------4-----------------------2-242-------|
G#|-------------------------4-----2-4-2-----4-------------4---4-----4-------2-------2---------5-4-2-|
C#|-5-5-5---5-5-5-5-----5-----------------------6---4-------4-----------4---------4---4-------------|
    1 + 2 + 3 + 1 + 2 + 3 + 1 + 2 + 3 + 1 + 2 + 3 + 1 + 2 + 3 + 1 + 2 + 3 + 1 + 2 + 3 + 1 + 2 + 3 + 

F#|-----------------------------------------3-3-------------4-4-----5-5-----------------------------|
C#|-------------------4-6---------7-6-7---------3-3---------------------5-5-----4---4-2-4-----------|
G#|-------------------------0-----------1-1---------2-2-2-2-----3-3---------------4-----------------|
C#|---------5---6-----------------------------------------------------------4-4-------------4-------|
    1 + 2 + 3 + 1 + 2 + 3 + 1 + 2 + 3 + 1 + 2 + 3 + 1 + 2 + 3 + 1 + 2 + 3 + 1 + 2 + 3 + 1 + 2 + 3 + 

2:01
F#|-------------------------------------------------------------------------------------------------|
C#|---------------------------------7-9-7-------------------6-------5-------------------4-2---------|
G#|-2-----------------------0-------------9-7-4-------------------------5---------4---4-----4-2-----|
C#|---------------------4-----------------------4-4-6-----------5-----------4-------4-----------4---|
    1 + 2 + 3 + 1 + 2 + 3 + 1 + 2 + 3 + 1 + 2 + 3 + 1 + 2 + 3 + 1 + 2 + 3 + 1 + 2 + 3 + 1 + 2 + 3 + 

F#|-------------------------------------------------------------------------------------------------|
C#|---------------------------------2---2---2-------5-5-------------7-------------------------------|
G#|-2-------2---2---4---5---------2-----------2-----------5-----0-------7---------------------------|
C#|-----------4-------------2-------------------2-----------5---------------2-----------------------|
    1 + 2 + 3 + 1 + 2 + 3 + 1 + 2 + 3 + 1 + 2 + 3 + 1 + 2 + 3 + 1 + 2 + 3 + 1 + 2 + 3 + 1 + 2 + 3 + 

F#|-------------------------|
C#|-2-----------------------|
G#|-------------------------|
C#|---2---------------------|
    1 + 2 + 3 + 1 + 2 + 3 + 

Bridge 2:21
F#|-------------------------------------------------------------------------------------------------|
C#|-------------6-----6-----5-----------5-----5-----4-----------4-----------3-----------------------|
G#|-------6-------6-----6---------5-------5-----5-----4---4---4-----4-------------3---3-------------|
C#|-6-------6-------6---------------5-------5-----------4---4-----------4-----------3---3---3---3---|
    1 + 2 + 3 + 1 + 2 + 3 + 1 + 2 + 3 + 1 + 2 + 3 + 1 + 2 + 3 + 1 + 2 + 3 + 1 + 2 + 3 + 1 + 2 + 3 + 

Rest

2:45
F#|---------------------------|
C#|---------------------------|
G#|-2-2---2-2-2-0-2-----------|
C#|---------------------------|
    + 1 + 2 + 3 + 1 + 2 + 3 + 

Chorus 2:47
F#|-------------------------------------------------------------------------------------------------|
C#|-------------------------------------3-----------------------4-----------------------2-4-2-------|
G#|-------------------------4-----2-4-2-----4-------------4---4-----4-------2-------2---------5-4-2-|
C#|-5-5-----5-5-5-5-----5-----------------------6---4-------4-----------4---------4---4-------------|
    1 + 2 + 3 + 1 + 2 + 3 + 1 + 2 + 3 + 1 + 2 + 3 + 1 + 2 + 3 + 1 + 2 + 3 + 1 + 2 + 3 + 1 + 2 + 3 + 

F#|-----------------------------------------3-3-------------4-4-----5-5-----------------------------|
C#|-------------------4-6---------7-6-7---------3-3---------------------5-5-----4---4-2-4-----------|
G#|-------------------------0-----------1-1---------2-2-2-2-----3-3---------------4-----------------|
C#|---------5---6-----------------------------------------------------------4-4-------------4-------|
    1 + 2 + 3 + 1 + 2 + 3 + 1 + 2 + 3 + 1 + 2 + 3 + 1 + 2 + 3 + 1 + 2 + 3 + 1 + 2 + 3 + 1 + 2 + 3 + 

3:04
F#|-------------------------------------------------------------------------------------------------|
C#|---------------------------------7-9-7-------------------6-------5-------------------4-2---------|
G#|-2-----------------------0-------------9-7-4-------------------------5---------4---4-----4-2-----|
C#|---------------------4-----------------------4-4-6-----------5-----------4-------4-----------4---|
    1 + 2 + 3 + 1 + 2 + 3 + 1 + 2 + 3 + 1 + 2 + 3 + 1 + 2 + 3 + 1 + 2 + 3 + 1 + 2 + 3 + 1 + 2 + 3 + 

F#|-------------------------------------------------------------------------------------------------|
C#|---------------------------------2---2---2-------------------------------------------2-----2-4-2-|
G#|-2-------2---2---4---5---------2-----------2-----------------0-----------2---2---2-4---2-4-------|
C#|-----------4-------------2-------------------2---5-------------------------4---4-----------------|
    1 + 2 + 3 + 1 + 2 + 3 + 1 + 2 + 3 + 1 + 2 + 3 + 1 + 2 + 3 + 1 + 2 + 3 + 1 + 2 + 3 + 1 + 2 + 3 + 

Outro 3:21
F#|-------------------------------------------------------------------------------------------------|
C#|-------------------------2-2---2-----2-----------------------------------------------4-5-4-2-----|
G#|-2-----2---2-5---0---------------2-------2-------------------3-------3---4-----4-2-4---------5-4-|
C#|---------4-----------0-------------2---------2---5-----5-4-5-----5-------------------------------|
    1 + 2 + 3 + 1 + 2 + 3 + 1 + 2 + 3 + 1 + 2 + 3 + 1 + 2 + 3 + 1 + 2 + 3 + 1 + 2 + 3 + 1 + 2 + 3 + 

F#|-------------------------------------------------------------------------------------------------|
C#|-------------------------2-2---2----/4-----------------------------------------------------------|
G#|-2-2---2---2-5---0---------------2-------4-------------------------------------------------------|
C#|---------4-----------0-------------2---------2---5-----5-4-5-7---7-------5-----5-8-5-7---7-------|
    1 + 2 + 3 + 1 + 2 + 3 + 1 + 2 + 3 + 1 + 2 + 3 + 1 + 2 + 3 + 1 + 2 + 3 + 1 + 2 + 3 + 1 + 2 + 3 + 

F#|----------------------------------------/4-------------------------------------------------------|
C#|-------------------------------------------------------------------------------------------------|
G#|-------------0-------0---2-------2---2-------2---3-----------------------------------------------|
C#|-5-----5-4-5-----2-------------4---4-------------------------------------------------------------|
    1 + 2 + 3 + 1 + 2 + 3 + 1 + 2 + 3 + 1 + 2 + 3 + 1 + 2 + 3 + 1 + 2 + 3 + 1 + 2 + 3 + 1 + 2 + 3 +
Tabbed by Dave Vucko

            
            
Suggest correction
Creating personal tab
Creating personal tab
You can edit any tab online and save it as your Personal.

You can edit, replace or remove any tab part or add personal notes – all changes will be seen only by you.

Personal tabs can be accessed anytime from any device, even offline.
Learn more »
Give kudos to tab author, rate the tab!
1 2 3 4 5
comments
print report bad tab
guest
You may want to rate the tab now too:
select rating
Wanna post a correction for this tab? Suggest correction