Oops, an error
Loading. Please wait.

Desaparecer chords

94 views 9 this week
no commentswrite comment
1 2 3 4 5
3 more votes to show rating
add to favorites
×
Save as Personal and add changes to this tab that will be seen only by you. Learn more ›
×
You can save this tab as Personal to edit and correct it or add notes. All changes will be seen only by you. Learn more »
launch autoscroll
font size
0
reset
transpose
0
reset
display chords
guitar tuner
edit
Autoscroll
slow
fast
+/-
esc
set tempo
stop
About this tab version
Sounds good to me, but not it's not perfect. Was this info helpful? Yes No
Strumming Is this strumming pattern correct? Yes No
Verso 120 bpm
1
&
2
&
3
&
4
&
Listen
[Intro]
    Bm               C#m
e|--2---|----2----|---4----|----4---|
B|--3---|--3---3--|---5----|---5-5--|
G|--4---|4-------4|---6----|-6-----6|
D|--4---|---------|---6----|--4-----|
A|--2---|---------|---4----|--------|
E|--2---|---------|---4----|--------| (x2)

e|--5-------5-5-------|-7-4------7-4-----|-5-------5-5------------------|
B|----7-5-------7-5---|-----7-5------7-5-|---7-5-------7-5--------------|
G|--------7---------7-|------------------|-------7---------7-7h9-7-6----|
D|--------------------|------------------|------------------------------|
A|--------------------|------------------|------------------------------|
E|--------------------|------------------|------------------------------|

o, en acordes: D-C#m-Bm-E

[Verse]
D                     D              C#m
Todo lo que quiero es desaparecer contigo
Bm                                       E
arriba hacia las montañas o en medio del mar, me da igual
D                     D              C#m
Todo lo que quiero es desaparecer contigo
Bm                    E
en esta noche de luna llena
D                     D              C#m
Todo lo que quiero es desaparecer contigo
Bm                                       E
arriba hacia las montañas o en medio del mar, da igual
D                     D              C#m
Todo lo que quiero es desapareceeeer
Bm         C#m
contigo

[Verse]
D         C#m
Salir de aquí
Bm                  C#m
hacia donde dirá el fluir
D                C#m
no tenemos que decidir
Bm                          C#m
podemos ser libres y solo seguir
D      C#m
Desaparecer
Bm         C#m
con el atardecer
D                   C#m
y despertar donde soñamos
Bm                       E
y despertar donde nos encontramos

[Bridge]
       D                 D              C#m
Porque todo lo quiero es desaparecer contigo
Bm                               C#m
en esta noche, mira que hay luna llena

[Instrumental]
D-C#m-Bm-E

[Solo]
e|--5-------5-5-------|-7-4------7h9-7-4-----|-5-------5-5------------------|
B|----7-5-------7-5---|-----7-5----------7-5-|---7-5-------7-5--------------|
G|--------7---------7-|----------------------|-------7---------7-7h9-7-6----|
D|--------------------|----------------------|------------------------------|
A|--------------------|----------------------|------------------------------|
E|--------------------|----------------------|------------------------------|

            
            
Suggest correction
Creating personal tab
Creating personal tab
You can edit any tab online and save it as your Personal.

You can edit, replace or remove any tab part or add personal notes – all changes will be seen only by you.

Personal tabs can be accessed anytime from any device, even offline.
Learn more »
Give kudos to tab author, rate the tab!
1 2 3 4 5
comments
print report bad tab
guest
You may want to rate the tab now too:
select rating
Wanna post a correction for this tab? Suggest correction