Oops, an error
Loading. Please wait.

Timebomb Bass Tab

16 views 1 this week
no commentswrite comment
1 2 3 4 5
3 more votes to show rating
add to favorites
launch autoscroll
font size
0
reset
guitar tuner
Autoscroll
slow
fast
+/-
esc
set tempo
stop
Help us to improve Ultimate-Guitar.com Take our survey!
×
Author
Difficulty
Tuning
novice
D G C F A D
-------------------------------------------------------------------------------
                                 Timebomb - Old 97’s
-------------------------------------------------------------------------------
Tabbed by: CatWithAMustach
E-mail:brentvanderpol@gmail.com

Tuning - D Standard (DGCF)

This tab is very general. There are more specific parts to it that he plays for fills 
and such scattered throughout the song.

Intro 1:
F|-------|
C|-------|
G|-------|
D|-10----|

Intro 2:
F|-----------------------------------|
C|-------------------9---------------|
G|-----12------12-------9--10--10-12-| 
D|-10------10-----10-----------------|
    
Verse:
F|---------------------------------|
C|-----------------9---------------|
G|-----12-------------9--10--10-12-| 
D|-10------10---9------------------|

Chorus:
F|-------------------------------------------------------------------|
C|--------------------------------------9-----9--9------9-----9------|
G|-----12-------------10------10--10-12----9-------9-7-----7-----9\--| 
D|-10------10--10-12------10-----------------------------------------|


Song Structure:

Rest
Intro 1 (x1)
Rest
Intro 2 (x1)
Verse (x4)
Chorus (x1)
Verse (x4)
Chorus (x4)
Verse (x8)
Chorus (x1)
Verse (x4)
Chorus (x5)
Verse (x8)
Suggest correction
Give kudos to tab author, rate the tab!
1 2 3 4 5
comments
print report bad tab
guest
You may want to rate the tab now too:
select rating
Wanna post a correction for this tab? Suggest correction