Oops, an error
Loading. Please wait.

Branch Breaker Tab

776 views 1 this week
no commentswrite comment
1 2 3 4 5
2 more votes to show rating
add to favorites
launch autoscroll
font size
0
reset
how to read this tab
guitar tuner
Autoscroll
slow
fast
+/-
esc
set tempo
stop
Help us to improve Ultimate-Guitar.com Take our survey!
×
Author
Difficulty
Tuning
novice
B F# B E G# C#
-------------------------------------------------------------------|
-------------------------------------------------------------------|
-------------------------------------------------------------------|             x2
--5-0-6-0-3-0-0-0--000--000-5-0-6-0-2-0-0-0--000--000--------------|
--5-0-6-0-3-0-0-0--000--000-5-0-6-0-2-0-0-0--000--000--------------|
--5-0-6-0-3-0-0-0--000--000-5-0-6-0-2-0-0-0--000--000--------------|

Hair grows through skin like moss! Green soaked from ape cum!

-----------------------------------------------------------------------------|
--15-----16-----13-------------------15------16-----12-----------------------|
--14-----15-----12-------------------14------15-----11-----------------------|    x2
--12-0---13-0---10--0-0-0--000--000--12--0---13--0--9----0-0-0--000--000-----|
-----0------0-------0-0-0--000--000------0-------0-------0-0-0--000--000-----|
-----0------0-------0-0-0--000--000------0-------0-------0-0-0--000--000-----|

Man flees from, house and runs to the tree canopy!


--------------------------------------------------------------------|
--------------------------------------------------------------------|
--------------------------------------------------------------------|
--------------------------------------------------------------------|
----3/5--0-----------------3/5--0-----------------3/5--0------------|
-0----------3--0--6--3--0----------3--0--6--3--0---------3--0--6--3-|


                                                           We've!


--------------------------|
------9--------6----------|
------8--------5----------|
-0----6---0----3----------|
-0----6---0----3----------|
-0----6---0----3----------|
   .                   .


--------------------------------------------------------------------|
--------------------------------------------------------------------|
--------------------------------------------------------------------|
--------------------------------------------------------------------|
----3/5--0-----------------3/5--0-----------------3/5--0------------|
-0----------3--0--6--3--0----------3--0--6--3--0---------3--0--6--3-|


                                                              Known!


--------------------------|
------6--------9----------|
------5--------8----------|
-0----3---0----6----------|
-0----3---0----6----------|
-0----3---0----6----------|
   .                   .


--------------------------------------------------------------------|
--------------------------------------------------------------------|
--------------------------------------------------------------------|
--------------------------------------------------------------------|
----3/5--0-----------------3/5--0-----------------3/5--0------------|
-0----------3--0--6--3--0----------3--0--6--3--0---------3--0--6--3-|


                                                             For!


--------------------------|
------9--------6----------|
------8--------5----------|
-0----6---0----3----------|
-0----6---0----3----------|
-0----6---0----3----------|
   .                   .

--------------------------------------------------------------------|
--------------------------------------------------------------------|
--------------------------------------------------------------------|
--------------------------------------------------------------------|
----3/5--0-----------------3/5--0-----------------3/5--0------------|
-0----------3--0--6--3--0----------3--0--6--3--0---------3--0--6--3-|

                                                              Years!

--------------------------|
------6--------9----------|
------5--------8----------|
-0----3---0----6----------|
-0----3---0----6----------|
-0----3---0----6----------|
   .                   .


----------------------------------------------------------------------------|
----------------------------------------------------------------------------|
----------------------------------------------------------77777---77777-----|
-00000---00000---00000---00000----5/7-7-7-7---5/7-7-7-7---77777---77777-----|
-00000---00000---00000---00000----3/5-5-5-5---3/5-5-5-5---55555---55555-----|
-00000---00000---00000---00000----------------------------------------------|
   . . . . .        . . . . .        . . . . .        . . . . .


They've known for years, and now they do too!!!

. = Palm Mute

/ = Slide Up


My very first tab. Believed to be 100% correct.
Suggest correction
Give kudos to tab author, rate the tab!
1 2 3 4 5
comments
print report bad tab
guest
You may want to rate the tab now too:
select rating
Wanna post a correction for this tab? Suggest correction