Oops, an error
Loading. Please wait.

Wash Me Away tab

58 views 9 this week
no commentswrite comment
1 2 3 4 5
3 more votes to show rating
add to favorites
×
Save as Personal and add changes to this tab that will be seen only by you. Learn more ›
×
You can save this tab as Personal to edit and correct it or add notes. All changes will be seen only by you. Learn more »
launch autoscroll
font size
0
reset
how to read this tab
guitar tuner
edit
Autoscroll
slow
fast
+/-
esc
set tempo
stop
Transcribed from his Live SiriusXM Session - https://www.youtube.com/watch?v=k9sl4DxYy6U


[Intro]
e|--------------------------------|--------------------------------|
B|----------8---------------8-----|----------10--------------10----|
G|------0-------0-------0-------0-|------0-------0-------0-------0-|
D|----0-------0-------0-------0---|----0-------0-------0-------0---|
A|--------------------------------|--------------------------------|
E|7-------7-------7-------7-------|8-------8-------8-------8-------|


e|--------------------------------|--------------------------------|
B|----------12--------------12----|----------12--------------12----|
G|------0-------0-------0-------0-|------0-------0-------0-------0-|
D|----0-------0-------0-------0---|----0-------0-------0-------0---|
A|--------------------------------|--------------------------------|
E|10------10------10------10------|10------10------10------10------| x2


[Verse 1]
e|--------------------------------|--------------------------------|
B|----------8---------------8-----|----------10--------------10----|
G|------0-------0-------0-------0-|------0-------0-------0-------0-|
D|----0-------0-------0-------0---|----0-------0-------0-------0---|
A|--------------------------------|--------------------------------|
E|7-------7-------7-------7-------|8-------8-------8-------8-------|
          When I  wake    up               Will I  find    that the 
            We'll hurry on down the line  where our minds  wont get

e|--------------------------------|--------------------------------|
B|----------12--------------12----|----------10--------------10----|
G|------0-------0-------0-------0-|------0-------0-------0-------0-|
D|----0-------0-------0-------0---|----0-------0-------0-------0---|
A|--------------------------------|--------------------------------|
E|10------10------10------10------|8-------8-------8-------8-------| x2
  diggings    of  this    exca-    vation          come to haunt me?
  caught     some love  that   came                messed my piece 

[Interlude 1]
e|--------------------------------|--------------------------------|
B|----------8---------------8-----|----------10--------------10----|
G|------0-------0-------0-------0-|------0-------0-------0-------0-|
D|----0-------0-------0-------0---|----0-------0-------0-------0---|
A|--------------------------------|--------------------------------|
E|7-------7-------7-------7-------|8-------8-------8-------8-------|
     of     mind

e|--------------------------------|--------------------------------|
B|----------12--------------12----|----------12--------------12----|
G|------0-------0-------0-------0-|------0-------0-------0-------0-|
D|----0-------0-------0-------0---|----0-------0-------0-------0---|
A|--------------------------------|--------------------------------|
E|10------10------10------10------|10------10------10------10------|


[Chorus]
e|--------------------------------|--------------------------------|
B|----------3---------------3-----|----------1---------------0-----|
G|------0-------0-------0-------0-|------0-------0-------0-------0-|
D|----0-------0-------0-------0---|----0-------0-------4-------4---|
A|--------------------------------|--------------------------------|
E|3-------3-------3-------3-------|0-------0-------5-------5-------| x2
          20     years    down the road   we'll grow old   and see
          Then my ship    set      sail     from a storm   ridden

e|--------------------------------|--------------------------------|
B|----------3---------------3-----|----------5---------------9-----|
G|------0-------0-------0-------0-|------0-------0-------0-------0-|
D|----0-------0-------0-------0---|----0-------0-------0-------0---|
A|--------------------------------|3-------3-------5-------5-------|
E|3-------3-------3-------3-------|--------------------------------| x2
         That the light   of the   day     was so  or----dinary
  bay     Holy    water   come and wash            wash    me away

[Interlude 1]
e|--------------------------------|--------------------------------|
B|----------8---------------8-----|----------10--------------10----|
G|------0-------0-------0-------0-|------0-------0-------0-------0-|
D|----0-------0-------0-------0---|----0-------0-------0-------0---|
A|--------------------------------|--------------------------------|
E|7-------7-------7-------7-------|8-------8-------8-------8-------|


e|--------------------------------|--------------------------------|
B|----------12--------------12----|----------12--------------12----|
G|------0-------0-------0-------0-|------0-------0-------0-------0-|
D|----0-------0-------0-------0---|----0-------0-------0-------0---|
A|--------------------------------|--------------------------------|
E|10------10------10------10------|10------10------10------10------| x2


[Verse 2]
e|--------------------------------|--------------------------------|
B|----------8---------------8-----|----------10--------------10----|
G|------0-------0-------0-------0-|------0-------0-------0-------0-|
D|----0-------0-------0-------0---|----0-------0-------0-------0---|
A|--------------------------------|--------------------------------|
E|7-------7-------7-------7-------|8-------8-------8-------8-------|
         Will you wait   up?               Will you carry my
                Sittin on a lot of dust    Waitin on      good

e|--------------------------------|--------------------------------|
B|----------12--------------12----|----------10--------------10----|
G|------0-------0-------0-------0-|------0-------0-------0-------0-|
D|----0-------0-------0-------0---|----0-------0-------0-------0---|
A|--------------------------------|--------------------------------|
E|10------10------10------10------|8-------8-------8-------8-------| x2
  mind   as     far       as you   can?     Maybe  for the weekend
  reason       to come back home               beside     myself     

[Interlude 1]
e|--------------------------------|--------------------------------|
B|----------8---------------8-----|----------10--------------10----|
G|------0-------0-------0-------0-|------0-------0-------0-------0-|
D|----0-------0-------0-------0---|----0-------0-------0-------0---|
A|--------------------------------|--------------------------------|
E|7-------7-------7-------7-------|8-------8-------8-------8-------|
    again

e|--------------------------------|--------------------------------|
B|----------12--------------12----|----------12--------------12----|
G|------0-------0-------0-------0-|------0-------0-------0-------0-|
D|----0-------0-------0-------0---|----0-------0-------0-------0---|
A|--------------------------------|--------------------------------|
E|10------10------10------10------|10------10------10------10------|


[Chorus]
e|--------------------------------|--------------------------------|
B|----------3---------------3-----|----------1---------------0-----|
G|------0-------0-------0-------0-|------0-------0-------0-------0-|
D|----0-------0-------0-------0---|----0-------0-------4-------4---|
A|--------------------------------|--------------------------------|
E|3-------3-------3-------3-------|0-------0-------5-------5-------| x2
          20     years    down the road   we'll grow old   and see
          Then my ship    set      sail     from a storm   ridden

e|--------------------------------|--------------------------------|
B|----------3---------------3-----|----------5---------------9-----|
G|------0-------0-------0-------0-|------0-------0-------0-------0-|
D|----0-------0-------0-------0---|----0-------0-------0-------0---|
A|--------------------------------|3-------3-------5-------5-------|
E|3-------3-------3-------3-------|--------------------------------| x2
         That the light   of the   day     was so  or----dinary
  bay     Holy    water   come and wash            wash    me away


[Interlude 2]
e|--------------------------------|--------------------------------|
B|1---------1-----0---------0-----|--------------------------------|
G|------0-------0-------0-------0-|----------0---------------0-----|
D|----0-------0-------0-------0---|----0h3-----3p3-----0h3-----3p3-|
A|--------------------------------|--------------------------------|
E|3-------3-------3-------3-------|3-------3-------3-------3-------| 


e|--------------------------------|--------------------------------|
B|1---------1-----0---------0-----|----------0---------------0-----|
G|------0-------0-------0-------0-|------0-------0-------0-------0-|
D|----0-------0-------0-------0---|----0-------0-------0-------0---|
A|--------------------------------|--------------------------------|
E|3-------3-------3-------3-------|5-------5-------5-------5-------| x2


[Interlude 1]
e|--------------------------------|--------------------------------|
B|----------8---------------8-----|----------10--------------10----|
G|------0-------0-------0-------0-|------0-------0-------0-------0-|
D|----0-------0-------0-------0---|----0-------0-------0-------0---|
A|--------------------------------|--------------------------------|
E|7-------7-------7-------7-------|8-------8-------8-------8-------|


e|--------------------------------|--------------------------------|
B|----------12--------------12----|----------12--------------12----|
G|------0-------0-------0-------0-|------0-------0-------0-------0-|
D|----0-------0-------0-------0---|----0-------0-------0-------0---|
A|--------------------------------|--------------------------------|
E|10------10------10------10------|10------10------10------10------| x2


[Chorus]
e|--------------------------------|--------------------------------|
B|----------3---------------3-----|----------1---------------0-----|
G|------0-------0-------0-------0-|------0-------0-------0-------0-|
D|----0-------0-------0-------0---|----0-------0-------4-------4---|
A|--------------------------------|--------------------------------|
E|3-------3-------3-------3-------|0-------0-------5-------5-------| x2
          20     years    down the road   we'll grow old   and see
          Then my ship    set      sail     from a storm   ridden

e|--------------------------------|--------------------------------|
B|----------3---------------3-----|----------5---------------9-----|
G|------0-------0-------0-------0-|------0-------0-------0-------0-|
D|----0-------0-------0-------0---|----0-------0-------0-------0---|
A|--------------------------------|3-------3-------5-------5-------|
E|3-------3-------3-------3-------|--------------------------------| x2
         That the light   of the   day     was so  or----dinary
  bay     Holy    water   come and wash            wash    me away


[Outro]
e|--------------------------------|--------------------------------|
B|----------8---------------8-----|----------10--------------10----|
G|------0-------0-------0-------0-|------0-------0-------0-------0-|
D|----0-------0-------0-------0---|----0-------0-------0-------0---|
A|--------------------------------|--------------------------------|
E|7-------7-------7-------7-------|8-------8-------8-------8-------|


e|--------------------------------|--------------------------------|
B|----------12--------------12----|----------12--------------12----|
G|------0-------0-------0-------0-|------0-------0-------0-------0-|
D|----0-------0-------0-------0---|----0-------0-------0-------0---|
A|--------------------------------|--------------------------------|
E|10------10------10------10------|10------10------10------10------|

e|--------------------------------|--------------------------------|
B|----------8---------------8-----|----------10--------------10----|
G|------0-------0-------0-------0-|------0-------0-------0-------0-|
D|----0-------0-------0-------0---|----0-------0-------0-------0---|
A|--------------------------------|--------------------------------|
E|7-------7-------7-------7-------|8-------8-------8-------8-------|

e|--------------------------------|
B|--------------------------------|
G|0-------------------------------|
D|0-------------------------------|
A|2-------------------------------|
E|3-------------------------------|



************************************

| h  Hammer-on
| p  Pull-off

************************************ 
Suggest correction
Creating personal tab
Creating personal tab
You can edit any tab online and save it as your Personal.

You can edit, replace or remove any tab part or add personal notes – all changes will be seen only by you.

Personal tabs can be accessed anytime from any device, even offline.
Learn more »
Give kudos to tab author, rate the tab!
1 2 3 4 5
comments
print report bad tab
guest
You may want to rate the tab now too:
select rating
Wanna post a correction for this tab? Suggest correction