Oops, an error
Loading. Please wait.

Voy A Mil Tab

80 views 1 this week
no commentswrite comment
1 2 3 4 5
3 more votes to show rating
add to favorites
launch autoscroll
font size
0
reset
how to read this tab
guitar tuner
×
Best way to learn
"Voy A Mil"
Autoscroll
slow
fast
+/-
esc
set tempo
stop
Para mi la mejor, canción de Olé Olé:

INTRO
         (X2)

E--5-5--4-2----3-3--3-2-2-|---5-5------5-5------
B--5-5--5-4----3-3--3-3-3-|---5-5------5-5------
G--6-6--------------------|---6-6------6-6------
D-------------------------|--------7--------7---
A-------------------------|--------7--------7---
E-------------------------|--------5--------5---

       A
Voy a mil
y no puedo parar,
            Bm
inútil controlar
     E-F#m    C#m
mis de- se  - eos
                D    A
y apunto los minutos
                Bm
batí mi propio récord.

       A
Voy a mil
pensando en no se qué,
               Bm
me tranquilizaré,
     E-F#m    C#m
no te asu  - stes,
                   D      A
mis huellas se desgastan,
                  Bm
tus pistas me despistan.

       A          E
dime cuando?... cuando?
F#m    C#m      D      E
 me quedaré quieta, ahora
   A     E
quiero  todo
F#m C#m     D    E   A
en este momento para mi.

       A
Voy a mil,
frenético ritual,
                Bm
hmm, odio descansar,
     E-F#m    C#m
hoy te quie - ro,
               D    A
a veces no me miras,
             Bm
a veces no te veo.

       A
Voy a mil,
no logro reprimir
              Bm
el vicio de vivir,
   E-F#m  C#m
y lo sien-to
              D     A
la música me tienta
               Bm
la noche quema tanto.

       A          E
dime cuando?... cuando?
F#m    C#m    D       E
 me quedaré quieta? Ahora
   A     E
quiero  todo
F#m C#m     D      E  A
en este momento para mi!

INTRO

SOLO

E---------------------------10s12--------------12s14--12-10-9----10------
B-------9-10---9-12-10-9-10-------9-12-10-9-10----------------12---------
G--9s11------------------------------------------------------------------
D------------------------------------------------------------------------
A------------------------------------------------------------------------
E------------------------------------------------------------------------

E-----------------------------9-10--------16-17-19-19s21-19s21-19--------
B-------9-10-12-------9-10-12-------17-19--------------------------------
G--9s11----------9-11----------------------------------------------------
D------------------------------------------------------------------------
A------------------------------------------------------------------------
E------------------------------------------------------------------------

Para finalizar, una improvisación dentro de la escala de LA (p. ej)
E---19-17-16--14--17-16-14-----16-14----------------------------
B--------------------------17--------17-15--17-15-14------------
G----------------------------------------------------16-14------
D---------------------------------------------------------------
A---------------------------------------------------------------
E---------------------------------------------------------------

       A
Voy a mil,
descansa tú por mi,
               Bm
o duerme tú por mi
  E-F#m  C#m
y maña - na
                    D      A
me invitas a un martini
                  Bm
flotando en tu piscina.

       A         E
dime cuando?... cuando?
F#m    C#m     D      E
 me quedaré quieta? Ahora
   A     E
quiero  todo
F#m C#m     D      E  A
en este momento para mi..!!

FINAL
                         *Este riff se repite y se va apagando...*
E----------------------|--9---------------------------------------
B-10-9-----------------|----12-10-9---------9---10----12----------
G------11-9------------|------------11-9-11--------9-----9--------
D-----------12-11-9----|------------------------------------------
A-------------------12-|------------------------------------------
E----------------------|------------------------------------------

Recomiendo tocar los acordes como los pongo en la siguiente tablatura
y atacando solamente las tres cuerdas que se pisan en cada uno de ellos
para que le de un sonido un poco mas fuerte a la guitarra, Obviamente,
ejecutando corcheas.

   A   F#m  Bm  C#m   D   E
E----------------------------
B----------------------------
G------------4---6----7---9--
D--7----4----4---6----7---9--
A--7----4----2---4----5---7--
E--5----2--------------------

Dudas o comentarios, favor dirigirlas a patomacas@
Suggest correction
Give kudos to tab author, rate the tab!
1 2 3 4 5
comments
print report bad tab
guest
You may want to rate the tab now too:
select rating
Wanna post a correction for this tab? Suggest correction