Oops, an error
Loading. Please wait.

Hancur Hatiku Tab

1,417 views 1 this week
no commentswrite comment
1 2 3 4 5
3 more votes to show rating
add to favorites
launch autoscroll
font size
0
reset
how to read this tab
guitar tuner
Autoscroll
slow
fast
+/-
esc
set tempo
stop
Help us to improve Ultimate-Guitar.com Take our survey!
×
SOLO HANTU (Hancur Hatiku)
Guitar by hezza

e|---------------------------------------15--14--10-|
B|--------10/12-10/12-10~-8-8h10-7~-10/12--12--12---|
G|7/9-7/11------------------------------------------|
D|--------------------------------------------------|
A|--------------------------------------------------|
E|--------------------------------------------------|

e|----12--10----10----|
B|8/10--10----12--12~-|
G|----------11--------|
D|--------------------|
A|--------------------|
E|--------------------|

e|-----------------------------------------------------------------|
B|--------------------------------7-8-7~-/8-8-7-7--------------7~--|
G|------------------------7-9-7~-9---------------9-9~-7-7-6-7-9----|
D|--7-9-7/9-7/9-7/11~-/7-9-----------------------------------------|
A|/7-7-------------------------------------------------------------|
E|-----------------------------------------------------------------|

e|-----------------------------------------------------------------------------------------|
B|--------------------------------7-8-10~-/8-8-7-7----/8-8-7-7-----------------------------|
G|------------------------7-9-7~-9----------------9-9~--------9-9~--/16-16-15-15-16-16-18~-|
D|--7-9-7/9-7/9-7/11~-/7-9-----------------------------------------------------------------|
A|/7-7-------------------------------------------------------------------------------------|
E|-----------------------------------------------------------------------------------------|

pLease comment my Fs:hezza17@ymail.com
Suggest correction
Give kudos to tab author, rate the tab!
1 2 3 4 5
comments
print report bad tab
guest
You may want to rate the tab now too:
select rating
Wanna post a correction for this tab? Suggest correction