Oops, an error
Loading. Please wait.

The Dork Ages tab

217 views 3 this week
1 commentread comment
1 2 3 4 5
x 4
add to favorites
×
Save as Personal and add changes to this tab that will be seen only by you. Learn more ›
×
You can save this tab as Personal to edit and correct it or add notes. All changes will be seen only by you. Learn more »
launch autoscroll
font size
0
reset
how to read this tab
guitar tuner
edit
Autoscroll
slow
fast
+/-
esc
set tempo
stop
Author
great song from a really great band, proud to be the one to tab it out :^)


fourth time you play this part, hold the last note
e|------------------------2-44444-2-1--------------------|
B|-4-2---2------------2---------------4-2/4\2~-----2-----|
G|-----3---3-1/3~-1h3---3----------------------1h3---3---| x4
D|-----------------------------------------------------4-|
A|-------------------------------------------------------|
E|-------------------------------------------------------|


e|---------------2~--------------------------------2~-----------------|
B|-----------2----------------2----------------2----------------2-----|
G|-------1h3---3----------1h3---3----------1h3---3----------1h3---3---|
D|--------------------------------4~--------------------------------4-|
A|--------------------------------------------------------------------|
E|-22-22------------22-22------------22-22------------22-22-----------|
   •• ••            •• ••            •• ••            •• ••           

e|---------------------2---------2-------------|
B|-----2-----------2-----2---2-----2-----2-----|
G|-3-----3---3-1/3---3-----3---3-----1/3---3---|
D|---4-----4---------------------------------4-|
A|---------------------------------------------|
E|---------------------------------------------|

e|---------------------2-----2-----2---2---2---2-|
B|-----2-----------2-----2-----2-----2---2---2---|
G|-3-----3---3-1/3---3-----3-----3---------------|
D|---4-----4-------------------------------------|
A|-----------------------------------------------|
E|-----------------------------------------------|


this part is finger-picked, and if you want to also be able to play the other riff that goes on top of it
then you have to loop it. I think that the bass notes are tapped with the fretting hand, but it doesn't make
much difference if you pick them and mute a little bit. the vocals come in after the 4th repetition, the
xylophone comes in after the 8th, and the french horn comes in after the 10th.
e|-------------2-------------------------2---------------------|                     |
B|-----------2-----------4-2-----------2-----------4-2---2-4---|                     |
G|---3-----3-----------3-------3-----3-----------3-----------3-|                     |
D|-----4-4-----------------------4-4-------------------4-------|                     |
A|-------------------------------------------------------------|                     |
E|-2-------------4-4p2-------2-------------4-4p2---------------|                     |
                 T T T                     T T T                                     |x12
                                                                                     |
e|-------------2-------------------------2-----------------------------------------| |
B|-----------2-----------4-2-----------2-----------4-2---2-4-------4-2---2h4p2-----| |
G|---3-----3-----------3-------3-----3-----------3-----------3---3-------------3---| |
D|-----4-4-----------------------4-4-------------------4-------4-------4---------4-| |
A|---------------------------------------------------------------------------------| |
E|-2-------------4-4p2-------2-------------4-4p2-----------------------------------| |
                 T T T                     T T T                                     |

this riff comes in after the first time the other one is played, I recommend looping it because it's played
so many times that it's difficult to keep track of how many. in the recording this riff just cuts out at the
end
e|------9------9-11-|
B|-9/11---9/11------|
G|------------------|
D|------------------|
A|------------------|
E|------------------|



************************************

| h  Hammer-on
| p  Pull-off
| /  Slide up
| \  Slide down
| ~  Vibrato

************************************
Suggest correction
Creating personal tab
Creating personal tab
You can edit any tab online and save it as your Personal.

You can edit, replace or remove any tab part or add personal notes – all changes will be seen only by you.

Personal tabs can be accessed anytime from any device, even offline.
Learn more »
comments
print report bad tab
1 comment total.
0 reply
heisch82111 92 Mar 10, 2017 07:38 PM

this is a great tab! please tab their song "brother"

guest
You may want to rate the tab now too:
select rating
Wanna post a correction for this tab? Suggest correction