Oops, an error
Loading. Please wait.

The Greatest Story Ever Told Tab

version 1
version 1

Whole song

53,295 views 15 this week
5 commentsread comments
1 2 3 4 5
x 27
add to favorites
launch autoscroll
font size
0
reset
how to read this tab
guitar tuner
×
Best way to learn
"The Greatest Story Ever Told"
Autoscroll
slow
fast
+/-
esc
set tempo
stop
this song was in What A Girl Wants..
e-mail me if u want to hear it.. [e-mail: lilsportiegurl02@yahoo.com]

h - hammer on
~ - ring out
p - pull off

Intro:  (2x)
e|-3---------------------3~--------|
B|-3---3---3-----------------------|
G|-----0---0---0-------0-----------|
D|---0---0---0-----0h2-------------|
A|---------2-----3-----------------|
E|-3-------------------------------|

Verse:  "Thank you for..."
e|-3-------------------------------3-----------------------3~----------------|
B|-3---3---3---------------3~------3---3---3---------------3~----------------|
G|-----0---0---0---------0------0------0---0---0---------0------0------------|
D|---0---0---0---0---0h2------2------0---0---0---0---0h2------2--------------|
A|---------2-------3-----------------------2-------3-------------------------|
E|-3-------------------------------3-----------------------------------------|

Verse Cont'd:  "Of all the hopes..."
e|-------------------------3~--------------2~--------------------------------|
B|-1-----1-3-------3---------------------3------3----------------------------|
G|-----0-------0-------0-----------0---2-------------------------------------|
D|---2-------0---0---2---2-----0h2---0--------0---0--------------------------|
A|-0-------2-------3---------------------------------------------------------|
E|---------------------------------------------------------------------------|

Verse Cont'd:  "If I could have one dance..."
e|-3--------------------------------3----------------------------3-----------|
B|-3-------3---------------3~-------3-------3---------------3~---------------|
G|-----0---0---0---------0------0-------0---0---0---------0----0---0---------|
D|---0---0---0---0---0h2----------2---0---0---0---0---0h2--------------------|
A|---------2-------3----------3-------------2-------3------------------------|
E|-3--------------------------------3----------------------------------------|

Verse Cont'd:
e|---------------------------------------3------2~--3p2----------------------|
B|-1-----1-3-------3-------2-------3---3---3----3~------3--------------------|
G|-----0-------0-------0-------2-----2-------2--2~--------2-0----------------|
D|---2-------0---0---2---2---2---2-0------------0~---------------------------|
A|-0-------2-------3-------0-------------------------------------------------|
E|---------------------------------------------------------------------------|

Chorus:  "If I lived a thousand..."
e|-3-----------------------3~-------3-----------------------3~---------------|
B|-3-------3-------3------------3---3-------3-------3------------3-----------|
G|-----0---0---0---0-----0--------0-----0---0---0---0-----0------0-----------|
D|---0---0---0---0---0h2------2-------0---0---0---0---0h2------2---2---------|
A|---------2-------3------------------------2-------3------------------------|
E|-3--------------------------------3----------------------------------------|

Chorus Cont'd:  "But if destiny decided..."
e|-3-----------------------------3~------------------------------------------|
B|-3-------3---------------3----------3--------------------------------------|
G|-----0-------2---------0-----0----------0----------------------------------|
D|---0---0---0---0-----2-----2----------2------------------------------------|
A|-------------------2-----3--------3----------------------------------------|
E|-3-------2-------0---------------------------------------------------------|

Chorus Cont'd:  "Then the world would never know..."
e|--------3~---------------3~-----------3---3-------3-------3----------------|
B|3------------------3----------3---1-----------1~--3------------------------|
G|------0----------0-0---0------0-------------2---------0-----0---0----------|
D|--0h2------2-0h2-----0------0---0---2---2-0---------0---0-----0------------|
A|3------------------2--------------0----------------------------------------|
E|--------------------------------------------------3------------------------



this isint the whole song but its basically repeating.. feel free to e-mail
questions, comments, and/or corrections..
Suggest correction
comments
print report bad tab
5 comments total. Showing first comments.
0 reply
tuhreeshah 10 May 05, 2006 07:07 AM

love the tab...

0 reply
lookz_r_dcv1ng 31 Jul 09, 2006 10:28 PM

very nice...accurate, i love the song, good job

0 reply
solo322 62 Jun 03, 2008 10:30 PM

Very good, sounds right to me so far, right before the first chorus, the pull off starts a step lower.

e|---------------------------------------3------2~--1p0----------------------|
B|-1-----1-3-------3-------2-------3---3---3----3~------3--------------------|
G|-----0-------0-------0-------2-----2-------2--2~--------2-0----------------|
D|---2-------0---0---2---2---2---2-0------------0~---------------------------|
A|-0-------2-------3-------0-------------------------------------------------|
E|---------------------------------------------------------------------------|

guest
You may want to rate the tab now too:
select rating
Wanna post a correction for this tab? Suggest correction