Oops, an error
Loading. Please wait.

Movin Cruisin Tab

version 1
version 1

Intro

Whole song

2,370 views 3 this week
1 commentread comment
1 2 3 4 5
2 more votes to show rating
add to favorites
launch autoscroll
font size
0
reset
how to read this tab
guitar tuner
Autoscroll
slow
fast
+/-
esc
set tempo
stop
Help us to improve Ultimate-Guitar.com Take our survey!
×
Difficulty
novice
This is my first tab, so don't laugh and anything else. :)

It's from the movie: Who Find a Friend, Find a Treasure
Music from: Oliver Onion - Movin' Curisin'

Standard Tuning (E A D G B E)

e-8-8-12-7-3---3-1-1---1-1-3-1-3-1---------------|
B------------------------------------------------|
G------------------------------------------------|
D------------------------------------------------|
A------------------------------------------------|
E------------------------------------------------|

e-8-8-12-7-3---3-1-1---1-3-1-3-1-----------------|
B------------------------------------------------|
G------------------------------------------------|
D------------------------------------------------|
A------------------------------------------------|
E------------------------------------------------|

Sooooo, oahm, that was the tab, hope U enjoyed it!
And don't forget, everything is about practice! ;)
Suggest correction
Give kudos to tab author, rate the tab!
1 2 3 4 5
comments
print report bad tab
1 comment total.
+1 reply
htrnfr 10 Feb 04, 2015 10:34 AM

e-8-8-12-10-7-----3-1-1---1-1-3-1-3-1---------------|
B-------------8-----------------------------------|
G------------------------------------------------|
D------------------------------------------------|
A------------------------------------------------|
E------------------------------------------------|

e-8-8-12-10-7-----3-1-1---1-3-1-3-1-----------------|
B-------------8-----------------------------------|
G------------------------------------------------|
D------------------------------------------------|
A------------------------------------------------|
E------------------------------------------------|
Fixed :D

guest
You may want to rate the tab now too:
select rating
Wanna post a correction for this tab? Suggest correction