Oops, an error
Loading. Please wait.

Carry On Bass Tab

25 views 1 this week
no commentswrite comment
1 2 3 4 5
x 4
add to favorites
launch autoscroll
font size
0
reset
guitar tuner
Autoscroll
slow
fast
+/-
esc
set tempo
stop
Help us to improve Ultimate-Guitar.com Take our survey!
×
Author
Difficulty
Tuning
novice
E A D G B E
/// Carry On by Olivia Holt ///

Tabbed by Izach Prince Paul


[Intro] 

G|-------|-------|-------|-------|
D|-------|-------|-------|-------|
A|-------|--6----|-------|-------| x2
E|--3----|-------|--6----|--1----|

[Verse]

G|------------------|-------------|-------------|-------------|
D|-----------5-3----|-------------|-------------|------3------|
A|---------6-----6--|--5-6-5------|----5-6------|----3--------|
E|--3---------------|--------6----|--6-----1----|--1-----3----|

G|------------------|-------------|-------------|-------------|
D|-----------5-3----|-------------|-------------|------3------|
A|---------6-----6--|--5-6-5------|----5-6------|----3--------|
E|--3---------------|--------6----|--6-----1----|--1-----3----|

G|------------------|-------------|-------------|-------------|
D|-----------5-3----|-------------|-------------|------3------|
A|---------6-----6--|--5-6-5------|----5-6------|----3--------|
E|--3---------------|--------6----|--6-----1----|--1-----3----|

G|-----|-------|
D|-----|----5--|
A|-----|--5----|
E|--3--|-------|


[PreChorus 1]

G|-------|-------|-------|-------|
D|-------|-------|-------|-------|
A|--6----|-------|--8----|--5----| x2
E|-------|--6----|-------|-------|

G|-------|-------|-------|-------|
D|-------|-------|-------|-------|
A|--6----|-------|-------|--8----| x1
E|-------|--3----|--6----|-------|

G|-------|-------|-------|-------|
D|-------|-------|-------|-------|
A|--6----|-------|-------|-------| x1
E|-------|--6----|--1----|--1/13-|

[Chorus 1]

G|-------|-------|-------|-------|
D|-------|-------|-------|-------|
A|--6----|-------|-------|--8----| x2
E|-------|--6----|--3----|-------|

[Verse 2]

G|------------------|-------------|-------------|-------------|
D|-----------5-3----|-------------|-------------|------3------|
A|---------6-----6--|--5-6-5------|----5-6------|----3--------|
E|--3---------------|--------6----|--6-----1----|--1-----3----|

G|------------------|-------------|-------------|-------------|
D|-----------5-3----|-------------|-------------|------3------|
A|---------6-----6--|--5-6-5------|----5-6------|----3--------|
E|--3---------------|--------6----|--6-----1----|--1-----3----|

G|------------------|-------------|-------------|-------------|
D|-----------5-3----|-------------|-------------|------3------|
A|---------6-----6--|--5-6-5------|----5-6------|----3--------|
E|--3---------------|--------6----|--6-----1----|--1-----3----|

G|-----|-------|
D|-----|----5--|
A|-----|--5----|
E|--3--|-------|

G|------------|
D|------------|
A|------------|
E|--1---1/13--|

[PreChorus 2]

G|-------|-------|-------|-------|
D|-------|-------|-------|-------|
A|--6----|-------|--8----|--5----| x2
E|-------|--6----|-------|-------|

G|-------|-------|-------|-------|
D|-------|-------|-------|-------|
A|--6----|-------|-------|--8----| x1
E|-------|--3----|--6----|-------|

G|-------|-------|-------|-------|
D|-------|-------|-------|-------|
A|--6----|-------|-------|-------| x1
E|-------|--6----|--1----|--1/13-|

[Chorus 2]

G|-------|-------|-------|-------|
D|-------|-------|-------|-------|
A|--6----|-------|-------|--8----| x2
E|-------|--6----|--3----|-------|

[Bridge]
G|-------|-------|-------|-------|
D|-------|-------|-------|-------|
A|--3----|--5----|--6----|--8----| x2
E|-------|-------|-------|-------|

[PreChorus 3]

G|-------|-------|-------|-------|
D|-------|-------|-------|-------|
A|--6----|-------|--8----|--5----| x2
E|-------|--6----|-------|-------|

G|-------|-------|-------|-------|
D|-------|-------|-------|-------|
A|--6----|-------|-------|--8----| x1
E|-------|--3----|--6----|-------|

G|-------|-------|-------|-------|
D|-------|-------|-------|-------|
A|--6----|-------|-------|-------| x1
E|-------|--6----|--1----|--1/13-|

[Outro]
G|-------|-------|-------|-------|
D|-------|-------|-------|-------|
A|-------|--6----|-------|-------| x1
E|--3----|-------|--6----|--1----|

G|-------|-------|-------|
D|-------|-------|-------|
A|-------|--6----|-------|
E|--3----|-------|--6----|


************************************

| /   Slide up

************************************
Suggest correction
comments
print report bad tab
guest
You may want to rate the tab now too:
select rating
Wanna post a correction for this tab? Suggest correction