Oops, an error
Loading. Please wait.

Free The People chords

124 views 3 this week
no commentswrite comment
1 2 3 4 5
3 more votes to show rating
add to favorites
×
Save as Personal and add changes to this tab that will be seen only by you. Learn more ›
×
You can save this tab as Personal to edit and correct it or add notes. All changes will be seen only by you. Learn more »
launch autoscroll
font size
0
reset
transpose
0
reset
simplify chords
display chords
guitar tuner
edit
Autoscroll
slow
fast
+/-
esc
set tempo
stop
Author
Strumming
There is no strumming pattern for this song yet. and get +5 IQ
-----------------------------------------------------------------------------------------------------
                                   FREE THE PEOPLE - Olivia Newton-John
-----------------------------------------------------------------------------------------------------
Sung by: Olivia Newton-John
Written by: Barbara Keith
Album: Long Live Love (1974)
Key: D


NOTE: Only [Intro] and [Outro] are drop-D tuning.


[Intro]

e|------------------------|------------------------|------------------------|------------------------|
B|------------------------|------------------------|------------------------|------------------------|
G|------------------------|------------------------|------------------------|----2-----2-------------|
D|----0-----0-----0-----0-|----3-----3-----3-------|----5-----5-----5-----5-|------------------------|
A|-------0-----------0h2--|-------3--------------5-|-3-----------3-----5/7--|-0-----0-----0--2--3--4-|
D|-0-----------0----------|-3-----------3-----5h7--|-------5----------------|------------------------|

         Free the people...        From the fire...     Pull the boat out of the raging sea...

e|------------------------|------------------------|------------------------|------------------------|
B|------------------------|------------------------|------------------------|------------------------|
G|------------------------|------------------------|----0-----0-----0-----0-|------------------------|
D|----0-----0-----0-----0-|----4---------4-------4-|------------------------|------------------------|
A|-------0-----------0h2--|-------1-4-2------0-----|------------------------|-0--2--4----------------|
D|-0-----------0----------|-4----------------------|-5-----5-----5-----5----|----------0-------------|

         Tell the Devil...    He's a liar...            Come  and  save  the  likes of me...

[Verse 1]

D             E
Saw your light from the street
G                   D
As I passed by the other day
D             E
I was scared, my knees were weak
G                 A/C#  A   D
Forgot what I had come  to  say

[Chorus]

D              F   
Free the people from the fire
C                       A 
Pull the boat out of the raging sea
D             F#      Bm  A
Tell the Devil, he's a liar
G                A         D
Come and save the likes of me

[Verse 2]

D        E
Saw a man walk on water
G                   D
Everybody looking on
D            E
I didn't know I was His daughter
G                   A/C#  A  D
Till both of us had come and gone

[Chorus]

D              F   
Free the people from the fire
C                       A 
Pull the boat out of the raging sea
D             F#      Bm  A
Tell the Devil, he's a liar
G                A         D
Come and save the likes of me

[Verse 3]

D            E
If you see me in the valley
G                      D
Looking like I don't belong
D                 E
You can put me in your greenest valley
G                          A/C#  A  D
I'll still be singing this same old song

[Chorus] (x2)

D              F   
Free the people from the fire
C                       A 
Pull the boat out of the raging sea
D             F#      Bm  A
Tell the Devil, he's a liar
G                A         D
Come and save the likes of me

[Outro] (Fade out)

e|------------------------|------------------------|------------------------|------------------------|
B|------------------------|------------------------|------------------------|------------------------|
G|------------------------|------------------------|------------------------|----2-----2-------------|
D|----0-----0-----0-----0-|----3-----3-----3-------|----5-----5-----5-----5-|------------------------|
A|-------0-----------0h2--|-------3--------------5-|-3-----------3-----5/7--|-0-----0-----0--2--3--4-|
D|-0-----------0----------|-3-----------3-----5h7--|-------5----------------|------------------------|

e|------------------------|------------------------|------------------------|------------------------|
B|------------------------|------------------------|------------------------|------------------------|
G|------------------------|------------------------|----0-----0-----0-----0-|------------------------|
D|----0-----0-----0-----0-|----4---------4-------4-|------------------------|------------------------|
A|-------0-----------0h2--|-------1-4-2------0-----|------------------------|-0--2--4----------------|
D|-0-----------0----------|-4----------------------|-5-----5-----5-----5----|----------0-------------|



************************************

| h  Hammer-on
| /  Slide up

************************************
Suggest correction
Creating personal tab
Creating personal tab
You can edit any tab online and save it as your Personal.

You can edit, replace or remove any tab part or add personal notes – all changes will be seen only by you.

Personal tabs can be accessed anytime from any device, even offline.
Learn more »
Give kudos to tab author, rate the tab!
1 2 3 4 5
comments
print report bad tab
guest
You may want to rate the tab now too:
select rating
Wanna post a correction for this tab? Suggest correction