Oops, an error
Loading. Please wait.

Have You Never Been Mellow bass

version 1
version 1

Whole song

Interactive

160 views 1 this week
no commentswrite comment
1 2 3 4 5
3 more votes to show rating
add to favorites
×
Save as Personal and add changes to this tab that will be seen only by you. Learn more ›
×
You can save this tab as Personal to edit and correct it or add notes. All changes will be seen only by you. Learn more »
launch autoscroll
font size
0
reset
guitar tuner
edit
Autoscroll
slow
fast
+/-
esc
set tempo
stop
Author
---------------------------------------------------------------------
           Have You Never Been Mello - Olivia Newton-John
---------------------------------------------------------------------
Tabbed by: RagnaarMN
Tuning: Standard
Key of C Major

 Intro:
G|----------------|----------------|----------------|----------------|
D|----------------|----------------|----------------|----------------|
A|2-------3-------|3-------3-------|0-------0-------|0-------0-------|
E|----------------|----------------|----------------|----------------|

G|----------------|----------------|----------------|----------------|
D|----------------|----------------|----------------|----------------|
A|----------------|----------------|2---2-3---------|2---2-3---------|
E|1-------1-------|1-------1-------|----------------|----------------|

  Verse:
G|----------------|----------------|----------------|----------------|
D|----------------|----------------|----------------|----------------|
A|3-----3-3-----3-|2-----2-2-----2-|0-----0-0-----0-|----------------|
E|----------------|----------------|----------------|3-----3-3-----3-|
          There

G|----------------|----------------|----------------|----------------|
D|----------------|----------0-----|----------------|--------------0-|
A|----------------|------------3---|----------------|------0---------|
E|1-----1-1-----1-|0-----0---------|1-----1-1-----1-|3---------3-0---|

G|----------------|----------------|----------------|----------------|
D|----------------|----------------|----------------|----------------|
A|3-----3-3-----3-|2-----2-2-----2-|0-----0-0-----0-|----------------|
E|----------------|----------------|----------------|3-----3-3-----3-|
          There

G|----------------|----------------|----------------|----------------|
D|----------------|----------0-----|----------------|----------------|
A|----------------|------------3---|----------------|----------------|
E|1-----1-1-----1-|0-----0---------|1-----1-1-----1-|3-----3---2-3-4-|

G|----------------|----------------|----------------|----------------|
D|----------------|----------------|----------------|------------0-2-|
A|0-----0-0-----0-|----------------|----------------|----------3-----|
E|----------------|3-----3-3-----3-|1-----1-1-----1-|0-----0---------|
          Now

G|----------------|----------------|----------0-----|----------------|
D|1-----1-1-----1-|3-----3---------|1-----1-3---3-1-|0-----0-------0-|
A|----------------|--------1-----1-|----------------|----------1-----|
E|----------------|----------------|----------------|--------1---1---|
          No, I 

G|----------------|----------------|----------------|0-------0---3---|
D|----------------|----------------|0-----0-0-----0-|------0---0---0-|
A|3-----3---3-----|3-3-2-2-0-0-3-3-|----------------|----------------|
E|--------------3-|----------------|----------------|----------------|
                                        Have you

G|----------------|----------------|----------------|0-----0-0-----0-|
D|----------------|----------------|3-----3-3-----3-|----------------|
A|----------------|0-----0---0-2-3-|----------------|----------------|
E|0-----0---0-1-3-|----------------|----------------|----------------|
      Have you                          find a

G|----------------|----------------|----------------|0-----0---------|
D|----------------|----------------|0-----0-0-2-3-4-|--------3-----3-|
A|3-----3-3-----3-|3---3-1-3-1-3-4-|----------------|----------------|
E|----------------|--3-------------|----------------|----------------|
                                        Have you

G|----------------|----------------|----------------|0---0---0---0---|
D|2-----2-2-------|----------------|3-----3-3-----3-|----------------|
A|----------------|0-----0---0-2-3-|----------------|----------------|
E|----------0-1-3-|----------------|----------------|----------------|
                                        Have you

G|----------------|
D|----------------|
A|3---------------|
E|----------------|
  Strong            Rest then return to bar 8


I think I have the words on the correct beat. The 1st letter of the
word or 2 words is on the selected beat. Credit to musicnotelib. 
=====================================================================

            
            
Suggest correction
Creating personal tab
Creating personal tab
You can edit any tab online and save it as your Personal.

You can edit, replace or remove any tab part or add personal notes – all changes will be seen only by you.

Personal tabs can be accessed anytime from any device, even offline.
Learn more »
Give kudos to tab author, rate the tab!
1 2 3 4 5
comments
print report bad tab
guest
You may want to rate the tab now too:
select rating
Wanna post a correction for this tab? Suggest correction